  0
SECTION
  2
HEADER
  9
$ACADVER
  1
AC1015
  9
$ACADMAINTVER
 70
     6
  9
$DWGCODEPAGE
  3
ANSI_1252
  9
$INSBASE
 10
0.0
 20
0.0
 30
0.0
  9
$EXTMIN
 10
0.0
 20
0.0
 30
0.0
  9
$EXTMAX
 10
11.0
 20
8.5
 30
0.0
  9
$LIMMIN
 10
0.0
 20
0.0
  9
$LIMMAX
 10
11.0
 20
8.5
  9
$ORTHOMODE
 70
     0
  9
$REGENMODE
 70
     1
  9
$FILLMODE
 70
     1
  9
$QTEXTMODE
 70
     0
  9
$MIRRTEXT
 70
     1
  9
$LTSCALE
 40
1.0
  9
$ATTMODE
 70
     1
  9
$TEXTSIZE
 40
0.1666666667
  9
$TRACEWID
 40
0.05
  9
$TEXTSTYLE
  7
Standard
  9
$CLAYER
  8
0
  9
$CELTYPE
  6
ByLayer
  9
$CECOLOR
 62
   256
  9
$CELTSCALE
 40
1.0
  9
$DISPSILH
 70
     0
  9
$DIMSCALE
 40
1.0
  9
$DIMASZ
 40
0.09
  9
$DIMEXO
 40
0.05
  9
$DIMDLI
 40
0.38
  9
$DIMRND
 40
0.0
  9
$DIMDLE
 40
0.0
  9
$DIMEXE
 40
0.0625
  9
$DIMTP
 40
0.0
  9
$DIMTM
 40
0.0
  9
$DIMTXT
 40
0.1666666667
  9
$DIMCEN
 40
0.09
  9
$DIMTSZ
 40
0.0
  9
$DIMTOL
 70
     0
  9
$DIMLIM
 70
     0
  9
$DIMTIH
 70
     1
  9
$DIMTOH
 70
     1
  9
$DIMSE1
 70
     0
  9
$DIMSE2
 70
     0
  9
$DIMTAD
 70
     0
  9
$DIMZIN
 70
     0
  9
$DIMBLK
  1

  9
$DIMASO
 70
     1
  9
$DIMSHO
 70
     1
  9
$DIMPOST
  1

  9
$DIMAPOST
  1

  9
$DIMALT
 70
     0
  9
$DIMALTD
 70
     2
  9
$DIMALTF
 40
25.4
  9
$DIMLFAC
 40
1.0
  9
$DIMTOFL
 70
     0
  9
$DIMTVP
 40
0.0
  9
$DIMTIX
 70
     0
  9
$DIMSOXD
 70
     0
  9
$DIMSAH
 70
     0
  9
$DIMBLK1
  1

  9
$DIMBLK2
  1

  9
$DIMSTYLE
  2
Standard
  9
$DIMCLRD
 70
     0
  9
$DIMCLRE
 70
     0
  9
$DIMCLRT
 70
     0
  9
$DIMTFAC
 40
1.0
  9
$DIMGAP
 40
0.06
  9
$DIMJUST
 70
     0
  9
$DIMSD1
 70
     0
  9
$DIMSD2
 70
     0
  9
$DIMTOLJ
 70
     1
  9
$DIMTZIN
 70
     0
  9
$DIMALTZ
 70
     0
  9
$DIMALTTZ
 70
     0
  9
$DIMUPT
 70
     0
  9
$DIMDEC
 70
     2
  9
$DIMTDEC
 70
     2
  9
$DIMALTU
 70
     2
  9
$DIMALTTD
 70
     2
  9
$DIMTXSTY
  7
Standard
  9
$DIMAUNIT
 70
     0
  9
$DIMADEC
 70
     0
  9
$DIMALTRND
 40
0.0
  9
$DIMAZIN
 70
     0
  9
$DIMDSEP
 70
    46
  9
$DIMATFIT
 70
     3
  9
$DIMFRAC
 70
     0
  9
$DIMLDRBLK
  1

  9
$DIMLUNIT
 70
     2
  9
$DIMLWD
 70
    -2
  9
$DIMLWE
 70
    -2
  9
$DIMTMOVE
 70
     0
  9
$LUNITS
 70
     2
  9
$LUPREC
 70
     2
  9
$SKETCHINC
 40
0.1
  9
$FILLETRAD
 40
0.5
  9
$AUNITS
 70
     0
  9
$AUPREC
 70
     0
  9
$MENU
  1
.
  9
$ELEVATION
 40
0.0
  9
$PELEVATION
 40
0.0
  9
$THICKNESS
 40
0.0
  9
$LIMCHECK
 70
     0
  9
$CHAMFERA
 40
0.5
  9
$CHAMFERB
 40
0.5
  9
$CHAMFERC
 40
1.0
  9
$CHAMFERD
 40
0.0
  9
$SKPOLY
 70
     0
  9
$TDCREATE
 40
2456724.678803576
  9
$TDUCREATE
 40
2456724.928803576
  9
$TDUPDATE
 40
2456724.678804676
  9
$TDUUPDATE
 40
2456724.928804676
  9
$TDINDWG
 40
0.0000000116
  9
$TDUSRTIMER
 40
0.0000000116
  9
$USRTIMER
 70
     1
  9
$ANGBASE
 50
0.0
  9
$ANGDIR
 70
     0
  9
$PDMODE
 70
     0
  9
$PDSIZE
 40
-1.0
  9
$PLINEWID
 40
0.0
  9
$SPLFRAME
 70
     0
  9
$SPLINETYPE
 70
     6
  9
$SPLINESEGS
 70
     8
  9
$HANDSEED
  5
684
  9
$SURFTAB1
 70
     6
  9
$SURFTAB2
 70
     6
  9
$SURFTYPE
 70
     6
  9
$SURFU
 70
     6
  9
$SURFV
 70
     6
  9
$UCSBASE
  2

  9
$UCSNAME
  2

  9
$UCSORG
 10
0.0
 20
0.0
 30
0.0
  9
$UCSXDIR
 10
1.0
 20
0.0
 30
0.0
  9
$UCSYDIR
 10
0.0
 20
1.0
 30
0.0
  9
$UCSORTHOREF
  2

  9
$UCSORTHOVIEW
 70
     0
  9
$UCSORGTOP
 10
0.0
 20
0.0
 30
0.0
  9
$UCSORGBOTTOM
 10
0.0
 20
0.0
 30
0.0
  9
$UCSORGLEFT
 10
0.0
 20
0.0
 30
0.0
  9
$UCSORGRIGHT
 10
0.0
 20
0.0
 30
0.0
  9
$UCSORGFRONT
 10
0.0
 20
0.0
 30
0.0
  9
$UCSORGBACK
 10
0.0
 20
0.0
 30
0.0
  9
$PUCSBASE
  2

  9
$PUCSNAME
  2

  9
$PUCSORG
 10
0.0
 20
0.0
 30
0.0
  9
$PUCSXDIR
 10
1.0
 20
0.0
 30
0.0
  9
$PUCSYDIR
 10
0.0
 20
1.0
 30
0.0
  9
$PUCSORTHOREF
  2

  9
$PUCSORTHOVIEW
 70
     0
  9
$PUCSORGTOP
 10
0.0
 20
0.0
 30
0.0
  9
$PUCSORGBOTTOM
 10
0.0
 20
0.0
 30
0.0
  9
$PUCSORGLEFT
 10
0.0
 20
0.0
 30
0.0
  9
$PUCSORGRIGHT
 10
0.0
 20
0.0
 30
0.0
  9
$PUCSORGFRONT
 10
0.0
 20
0.0
 30
0.0
  9
$PUCSORGBACK
 10
0.0
 20
0.0
 30
0.0
  9
$USERI1
 70
     0
  9
$USERI2
 70
     0
  9
$USERI3
 70
     0
  9
$USERI4
 70
     0
  9
$USERI5
 70
     0
  9
$USERR1
 40
0.0
  9
$USERR2
 40
0.0
  9
$USERR3
 40
0.0
  9
$USERR4
 40
0.0
  9
$USERR5
 40
0.0
  9
$WORLDVIEW
 70
     1
  9
$SHADEDGE
 70
     3
  9
$SHADEDIF
 70
    70
  9
$TILEMODE
 70
     1
  9
$MAXACTVP
 70
    64
  9
$PINSBASE
 10
0.0
 20
0.0
 30
0.0
  9
$PLIMCHECK
 70
     0
  9
$PEXTMIN
 10
1.0000000000E+20
 20
1.0000000000E+20
 30
1.0000000000E+20
  9
$PEXTMAX
 10
-1.0000000000E+20
 20
-1.0000000000E+20
 30
-1.0000000000E+20
  9
$PLIMMIN
 10
0.0
 20
0.0
  9
$PLIMMAX
 10
12.0
 20
9.0
  9
$UNITMODE
 70
     0
  9
$VISRETAIN
 70
     1
  9
$PLINEGEN
 70
     0
  9
$PSLTSCALE
 70
     1
  9
$TREEDEPTH
 70
  3020
  9
$CMLSTYLE
  2
Standard
  9
$CMLJUST
 70
     0
  9
$CMLSCALE
 40
1.0
  9
$PROXYGRAPHICS
 70
     1
  9
$MEASUREMENT
 70
     0
  9
$CELWEIGHT
370
    -1
  9
$ENDCAPS
280
     0
  9
$JOINSTYLE
280
     0
  9
$LWDISPLAY
290
     1
  9
$INSUNITS
 70
     1
  9
$HYPERLINKBASE
  1

  9
$STYLESHEET
  1

  9
$XEDIT
290
     1
  9
$CEPSNTYPE
380
     0
  9
$PSTYLEMODE
290
     1
  9
$FINGERPRINTGUID
  2
{6D4C282F-6147-4249-B71E-33C358F6648B}
  9
$VERSIONGUID
  2
{FAEB1C32-E019-11D5-929B-00C0DF256EC4}
  9
$EXTNAMES
290
     1
  9
$PSVPSCALE
 40
0.0
  9
$OLESTARTUP
290
     0
  0
ENDSEC
  0
SECTION
  2
CLASSES
  0
CLASS
  1
ACDBDICTIONARYWDFLT
  2
AcDbDictionaryWithDefault
  3
ObjectDBX Classes
 90
        0
280
     0
281
     0
  0
CLASS
  1
VISUALSTYLE
  2
AcDbVisualStyle
  3
ObjectDBX Classes
 90
     4095
280
     0
281
     0
  0
CLASS
  1
MATERIAL
  2
AcDbMaterial
  3
ObjectDBX Classes
 90
     1153
280
     0
281
     0
  0
CLASS
  1
ACDBPLACEHOLDER
  2
AcDbPlaceHolder
  3
ObjectDBX Classes
 90
        0
280
     0
281
     0
  0
CLASS
  1
LAYOUT
  2
AcDbLayout
  3
ObjectDBX Classes
 90
        0
280
     0
281
     0
  0
ENDSEC
  0
SECTION
  2
TABLES
  0
TABLE
  2
VPORT
  5
8
330
0
100
AcDbSymbolTable
 70
     1
  0
VPORT
  5
29
330
8
100
AcDbSymbolTableRecord
100
AcDbViewportTableRecord
  2
*Active
 70
     0
 10
0.0
 20
0.0
 11
1.0
 21
1.0
 12
5.5
 22
4.25
 13
0.0
 23
0.0
 14
0.5
 24
0.5
 15
0.5
 25
0.5
 16
0.0
 26
0.0
 36
1.0
 17
0.0
 27
0.0
 37
0.0
 40
8.5
 41
1.2941176471
 42
50.0
 43
0.0
 44
0.0
 50
0.0
 51
0.0
 71
     0
 72
  2000
 73
     1
 74
     3
 75
     0
 76
     0
 77
     0
 78
     0
281
     0
 65
     1
110
0.0
120
0.0
130
0.0
111
1.0
121
0.0
131
0.0
112
0.0
122
1.0
132
0.0
 79
     0
146
0.0
  0
ENDTAB
  0
TABLE
  2
LTYPE
  5
5
330
0
100
AcDbSymbolTable
 70
     6
  0
LTYPE
  5
14
330
5
100
AcDbSymbolTableRecord
100
AcDbLinetypeTableRecord
  2
ByBlock
 70
     0
  3

 72
    65
 73
     0
 40
0.0
  0
LTYPE
  5
15
330
5
100
AcDbSymbolTableRecord
100
AcDbLinetypeTableRecord
  2
ByLayer
 70
     0
  3

 72
    65
 73
     0
 40
0.0
  0
LTYPE
  5
16
330
5
100
AcDbSymbolTableRecord
100
AcDbLinetypeTableRecord
  2
Continuous
 70
     0
  3
Solid line
 72
    65
 73
     0
 40
0.0
  0
LTYPE
  5
3F
330
5
100
AcDbSymbolTableRecord
100
AcDbLinetypeTableRecord
  2
HIDDEN
 70
     0
  3
Hidden __ __ __ __ __ __ __ __ __ __ __ __ __ __
 72
    65
 73
     2
 40
0.075
 49
0.05
 74
     0
 49
-0.025
 74
     0
  0
LTYPE
  5
40
330
5
100
AcDbSymbolTableRecord
100
AcDbLinetypeTableRecord
  2
PHANTOM
 70
     0
  3
Phantom ______  __  __  ______  __  __  ______
 72
    65
 73
     6
 40
0.5
 49
0.25
 74
     0
 49
-0.05
 74
     0
 49
0.05
 74
     0
 49
-0.05
 74
     0
 49
0.05
 74
     0
 49
-0.05
 74
     0
  0
LTYPE
  5
41
330
5
100
AcDbSymbolTableRecord
100
AcDbLinetypeTableRecord
  2
CENTER
 70
     0
  3
Center ____ _ ____ _ ____ _ ____ _ ____ _ ____
 72
    65
 73
     4
 40
0.4
 49
0.25
 74
     0
 49
-0.05
 74
     0
 49
0.05
 74
     0
 49
-0.05
 74
     0
  0
LTYPE
  5
42
330
5
100
AcDbSymbolTableRecord
100
AcDbLinetypeTableRecord
  2
CENTERX2
 70
     0
  3
Center (2x) ________  __  ________  __  _____
 72
    65
 73
     4
 40
0.8
 49
0.5
 74
     0
 49
-0.1
 74
     0
 49
0.1
 74
     0
 49
-0.1
 74
     0
  0
LTYPE
  5
43
330
5
100
AcDbSymbolTableRecord
100
AcDbLinetypeTableRecord
  2
DOT2
 70
     0
  3
Dot (.5x) ........................................
 72
    65
 73
     2
 40
0.025
 49
0.0
 74
     0
 49
-0.025
 74
     0
  0
ENDTAB
  0
TABLE
  2
LAYER
  5
2
330
0
100
AcDbSymbolTable
 70
     3
  0
LAYER
  5
10
330
2
100
AcDbSymbolTableRecord
100
AcDbLayerTableRecord
  2
0
 70
     0
 62
     7
  6
Continuous
370
    -3
390
F
  0
LAYER
  5
44
330
2
100
AcDbSymbolTableRecord
100
AcDbLayerTableRecord
  2
SLD-0
 70
     0
 62
    -7
  6
Continuous
370
    -3
390
F
  0
LAYER
  5
45
330
2
100
AcDbSymbolTableRecord
100
AcDbLayerTableRecord
  2
FORMAT
 70
     0
 62
     7
  6
Continuous
370
    -3
390
F
  0
ENDTAB
  0
TABLE
  2
STYLE
  5
3
330
0
100
AcDbSymbolTable
 70
     2
  0
STYLE
  5
11
330
3
100
AcDbSymbolTableRecord
100
AcDbTextStyleTableRecord
  2
Standard
 70
     0
 40
0.0
 41
1.0
 50
0.0
 71
     0
 42
0.1666666667
  3
txt
  4

  0
STYLE
  5
67F
330
3
100
AcDbSymbolTableRecord
100
AcDbTextStyleTableRecord
  2
SLDTEXTSTYLE0
 70
     0
 40
0.0
 41
0.605
 50
0.0
 71
     0
 42
0.2
  3
TXT
  4

  0
ENDTAB
  0
TABLE
  2
VIEW
  5
6
330
0
100
AcDbSymbolTable
 70
     0
  0
ENDTAB
  0
TABLE
  2
UCS
  5
7
330
0
100
AcDbSymbolTable
 70
     0
  0
ENDTAB
  0
TABLE
  2
APPID
  5
9
330
0
100
AcDbSymbolTable
 70
     1
  0
APPID
  5
12
330
9
100
AcDbSymbolTableRecord
100
AcDbRegAppTableRecord
  2
ACAD
 70
     0
  0
ENDTAB
  0
TABLE
  2
DIMSTYLE
  5
A
330
0
100
AcDbSymbolTable
 70
     1
100
AcDbDimStyleTable
  0
DIMSTYLE
105
27
330
A
100
AcDbSymbolTableRecord
100
AcDbDimStyleTableRecord
  2
Standard
 70
     0
178
     0
340
11
  0
ENDTAB
  0
TABLE
  2
BLOCK_RECORD
  5
1
330
0
100
AcDbSymbolTable
 70
     2
  0
BLOCK_RECORD
  5
1F
330
1
100
AcDbSymbolTableRecord
100
AcDbBlockTableRecord
  2
*Model_Space
340
22
  0
BLOCK_RECORD
  5
1B
330
1
100
AcDbSymbolTableRecord
100
AcDbBlockTableRecord
  2
*Paper_Space
340
1E
  0
BLOCK_RECORD
  5
23
330
1
100
AcDbSymbolTableRecord
100
AcDbBlockTableRecord
  2
*Paper_Space0
340
26
  0
BLOCK_RECORD
  5
67C
330
1
100
AcDbSymbolTableRecord
100
AcDbBlockTableRecord
  2
SW_NOTE_0
340
0
102
{BLKREFS
331
683
102
}
  0
ENDTAB
  0
ENDSEC
  0
SECTION
  2
BLOCKS
  0
BLOCK
  5
20
330
1F
100
AcDbEntity
  8
0
100
AcDbBlockBegin
  2
*Model_Space
 70
     0
 10
0.0
 20
0.0
 30
0.0
  3
*Model_Space
  1

  0
ENDBLK
  5
21
330
1F
100
AcDbEntity
  8
0
100
AcDbBlockEnd
  0
BLOCK
  5
1C
330
1B
100
AcDbEntity
 67
     1
  8
0
100
AcDbBlockBegin
  2
*Paper_Space
 70
     0
 10
0.0
 20
0.0
 30
0.0
  3
*Paper_Space
  1

  0
ENDBLK
  5
1D
330
1B
100
AcDbEntity
 67
     1
  8
0
100
AcDbBlockEnd
  0
BLOCK
  5
24
330
23
100
AcDbEntity
  8
0
100
AcDbBlockBegin
  2
*Paper_Space0
 70
     0
 10
0.0
 20
0.0
 30
0.0
  3
*Paper_Space0
  1

  0
ENDBLK
  5
25
330
23
100
AcDbEntity
  8
0
100
AcDbBlockEnd
  0
BLOCK
  5
67D
330
67C
100
AcDbEntity
  8
0
100
AcDbBlockBegin
  2
SW_NOTE_0
 70
     0
 10
0.0
 20
0.0
 30
0.0
  3
SW_NOTE_0
  1

  0
MTEXT
  5
680
330
67C
100
AcDbEntity
  8
FORMAT
 62
     0
100
AcDbMText
 10
0.236328125
 20
0.1611334675
 30
0.0
 40
0.125
 41
0.0
 71
     2
 72
     1
  1
ML-38
  7
SLDTEXTSTYLE0
 73
     1
 44
1.0
  0
MTEXT
  5
681
330
67C
100
AcDbEntity
  8
FORMAT
 62
     0
100
AcDbMText
 10
0.23813659
 20
-0.0055331972
 30
0.0
 40
0.125
 41
0.0
 71
     2
 72
     1
  1
4 SLOT
  7
SLDTEXTSTYLE0
 73
     1
 44
1.0
  0
MTEXT
  5
682
330
67C
100
AcDbEntity
  8
FORMAT
 62
     0
100
AcDbMText
 10
0.2409577545
 20
-0.1721998618
 30
0.0
 40
0.125
 41
0.0
 71
     2
 72
     1
  1
BORDER 2A
  7
SLDTEXTSTYLE0
 73
     1
 44
1.0
  0
ENDBLK
  5
67E
330
67C
100
AcDbEntity
  8
0
100
AcDbBlockEnd
  0
ENDSEC
  0
SECTION
  2
ENTITIES
  0
ARC
  5
46
330
1F
100
AcDbEntity
  8
0
  6
Continuous
 62
     7
370
    30
100
AcDbCircle
 10
3.953599356
 20
6.532061375
 30
0.0
 40
0.0150000000000015
100
AcDbArc
 50
229.8738546678
 51
270.0
  0
ARC
  5
47
330
1F
100
AcDbEntity
  8
0
  6
Continuous
 62
     7
370
    30
100
AcDbCircle
 10
3.578599356
 20
6.532061375
 30
0.0
 40
0.0150000000000015
100
AcDbArc
 50
270.0
 51
310.1261453322
  0
ARC
  5
48
330
1F
100
AcDbEntity
  8
0
  6
Continuous
 62
     7
370
    30
100
AcDbCircle
 10
3.838599356
 20
6.3956208988
 30
0.0
 40
0.163440476190477
100
AcDbArc
 50
49.8738546678
 51
83.0617566106
  0
ARC
  5
49
330
1F
100
AcDbEntity
  8
0
  6
Continuous
 62
     7
370
    30
100
AcDbCircle
 10
3.693599356
 20
6.3956208988
 30
0.0
 40
0.163440476190477
100
AcDbArc
 50
96.9382433894
 51
130.1261453322
  0
ARC
  5
4A
330
1F
100
AcDbEntity
  8
0
  6
Continuous
 62
     7
370
    30
100
AcDbCircle
 10
8.453599356
 20
6.532061375
 30
0.0
 40
0.0150000000000015
100
AcDbArc
 50
229.8738546678
 51
270.0
  0
ARC
  5
4B
330
1F
100
AcDbEntity
  8
0
  6
Continuous
 62
     7
370
    30
100
AcDbCircle
 10
8.078599356
 20
6.532061375
 30
0.0
 40
0.0150000000000015
100
AcDbArc
 50
270.0
 51
310.1261453322
  0
ARC
  5
4C
330
1F
100
AcDbEntity
  8
0
  6
Continuous
 62
     7
370
    30
100
AcDbCircle
 10
8.338599356
 20
6.3956208988
 30
0.0
 40
0.1634404761904769
100
AcDbArc
 50
49.8738546678
 51
83.0617566106
  0
ARC
  5
4D
330
1F
100
AcDbEntity
  8
0
  6
Continuous
 62
     7
370
    30
100
AcDbCircle
 10
8.193599356
 20
6.3956208988
 30
0.0
 40
0.1634404761904771
100
AcDbArc
 50
96.9382433894
 51
130.1261453322
  0
LINE
  5
4E
330
1F
100
AcDbEntity
  8
0
  6
Continuous
 62
     7
370
    30
100
AcDbLine
 10
8.0795993983
 20
4.6150115024
 30
0.0
 11
8.0795993983
 21
4.56674516
 31
0.0
  0
LINE
  5
4F
330
1F
100
AcDbEntity
  8
0
  6
Continuous
 62
     7
370
    30
100
AcDbLine
 10
8.4525993694
 20
4.56674516
 30
0.0
 11
8.4525993694
 21
4.5849558163
 31
0.0
  0
ARC
  5
50
330
1F
100
AcDbEntity
  8
0
  6
Continuous
 62
     7
370
    30
100
AcDbCircle
 10
8.099599356
 20
4.5667451345
 30
0.0
 40
0.0200000000000003
100
AcDbArc
 50
180.0
 51
241.8571552447
  0
ARC
  5
51
330
1F
100
AcDbEntity
  8
0
  6
Continuous
 62
     7
370
    30
100
AcDbCircle
 10
8.432599356
 20
4.5667451345
 30
0.0
 40
0.0199999999999996
100
AcDbArc
 50
298.1428447553
 51
0.0
  0
ARC
  5
52
330
1F
100
AcDbEntity
  8
0
  6
Continuous
 62
     7
370
    30
100
AcDbCircle
 10
8.266099356
 20
4.8780114995
 30
0.0
 40
0.3729999999999999
100
AcDbArc
 50
277.6034084169
 51
298.1428447553
  0
ARC
  5
53
330
1F
100
AcDbEntity
  8
0
  6
Continuous
 62
     7
370
    30
100
AcDbCircle
 10
8.266099356
 20
4.8780114995
 30
0.0
 40
0.3730000000000005
100
AcDbArc
 50
241.8571552447
 51
262.3965915831
  0
LINE
  5
54
330
1F
100
AcDbEntity
  8
0
  6
Continuous
 62
     7
370
    30
100
AcDbLine
 10
8.3480680169
 20
4.9558685248
 30
0.0
 11
8.3365994027
 21
4.962489935
 31
0.0
  0
LINE
  5
55
330
1F
100
AcDbEntity
  8
0
  6
Continuous
 62
     7
370
    30
100
AcDbLine
 10
8.1955993649
 20
4.962489935
 30
0.0
 11
8.1710994213
 21
4.9483448317
 31
0.0
  0
LINE
  5
56
330
1F
100
AcDbEntity
  8
0
  6
Continuous
 62
     7
370
    30
100
AcDbLine
 10
8.3610993464
 20
5.0039004233
 30
0.0
 11
8.3365994027
 21
5.0180454532
 31
0.0
  0
LINE
  5
57
330
1F
100
AcDbEntity
  8
0
  6
Continuous
 62
     7
370
    30
100
AcDbLine
 10
8.1955993649
 20
5.0180454532
 30
0.0
 11
8.1710994213
 21
5.0039004233
 31
0.0
  0
LINE
  5
58
330
1F
100
AcDbEntity
  8
0
  6
Continuous
 62
     7
370
    30
100
AcDbLine
 10
8.1710994213
 20
5.0039004233
 30
0.0
 11
8.1955993649
 21
4.98975532
 31
0.0
  0
LINE
  5
59
330
1F
100
AcDbEntity
  8
0
  6
Continuous
 62
     7
370
    30
100
AcDbLine
 10
8.3365994027
 20
4.98975532
 30
0.0
 11
8.3610993464
 21
5.0039004233
 31
0.0
  0
LINE
  5
5A
330
1F
100
AcDbEntity
  8
0
  6
Continuous
 62
     7
370
    30
100
AcDbLine
 10
8.1710994213
 20
4.8372337219
 30
0.0
 11
8.1955993649
 21
4.8230886187
 31
0.0
  0
LINE
  5
5B
330
1F
100
AcDbEntity
  8
0
  6
Continuous
 62
     7
370
    30
100
AcDbLine
 10
8.3365994027
 20
4.8230886187
 30
0.0
 11
8.3415877718
 21
4.8259686787
 31
0.0
  0
LINE
  5
5C
330
1F
100
AcDbEntity
  8
0
  6
Continuous
 62
     7
370
    30
100
AcDbLine
 10
8.1710994213
 20
4.9483448317
 30
0.0
 11
8.1955993649
 21
4.9341997284
 31
0.0
  0
LINE
  5
5D
330
1F
100
AcDbEntity
  8
0
  6
Continuous
 62
     7
370
    30
100
AcDbLine
 10
8.3365994027
 20
4.9341997284
 30
0.0
 11
8.3368758662
 21
4.9343593733
 31
0.0
  0
LINE
  5
5E
330
1F
100
AcDbEntity
  8
0
  6
Continuous
 62
     7
370
    30
100
AcDbLine
 10
8.1710994213
 20
5.7816781183
 30
0.0
 11
8.1955993649
 21
5.767533015
 31
0.0
  0
LINE
  5
5F
330
1F
100
AcDbEntity
  8
0
  6
Continuous
 62
     7
370
    30
100
AcDbLine
 10
8.3365994027
 20
5.767533015
 30
0.0
 11
8.3610993464
 21
5.7816781183
 31
0.0
  0
LINE
  5
60
330
1F
100
AcDbEntity
  8
0
  6
Continuous
 62
     7
370
    30
100
AcDbLine
 10
8.3607169908
 20
4.726343343
 30
0.0
 11
8.3365994027
 21
4.7402677154
 31
0.0
  0
LINE
  5
61
330
1F
100
AcDbEntity
  8
0
  6
Continuous
 62
     7
370
    30
100
AcDbLine
 10
8.1955993649
 20
4.7402677154
 30
0.0
 11
8.1710994213
 21
4.7261226122
 31
0.0
  0
LINE
  5
62
330
1F
100
AcDbEntity
  8
0
  6
Continuous
 62
     7
370
    30
100
AcDbLine
 10
8.1710994213
 20
5.9483448196
 30
0.0
 11
8.1955993649
 21
5.9341997164
 31
0.0
  0
LINE
  5
63
330
1F
100
AcDbEntity
  8
0
  6
Continuous
 62
     7
370
    30
100
AcDbLine
 10
8.3365994027
 20
5.9341997164
 30
0.0
 11
8.3610993464
 21
5.9483448196
 31
0.0
  0
LINE
  5
64
330
1F
100
AcDbEntity
  8
0
  6
Continuous
 62
     7
370
    30
100
AcDbLine
 10
8.1790269564
 20
4.7771011566
 30
0.0
 11
8.1955993649
 21
4.7675331005
 31
0.0
  0
LINE
  5
65
330
1F
100
AcDbEntity
  8
0
  6
Continuous
 62
     7
370
    30
100
AcDbLine
 10
8.1955993649
 20
4.7958232337
 30
0.0
 11
8.1788905579
 21
4.7861764184
 31
0.0
  0
LINE
  5
66
330
1F
100
AcDbEntity
  8
0
  6
Continuous
 62
     7
370
    30
100
AcDbLine
 10
8.1710994213
 20
4.7261226122
 30
0.0
 11
8.1955993649
 21
4.7119775089
 31
0.0
  0
LINE
  5
67
330
1F
100
AcDbEntity
  8
0
  6
Continuous
 62
     7
370
    30
100
AcDbLine
 10
8.3365994027
 20
4.7119775089
 30
0.0
 11
8.3609702812
 21
4.7260481064
 31
0.0
  0
LINE
  5
68
330
1F
100
AcDbEntity
  8
0
  6
Continuous
 62
     7
370
    30
100
AcDbLine
 10
8.3492576165
 20
4.6774038816
 30
0.0
 11
8.3365994027
 21
4.6847121239
 31
0.0
  0
LINE
  5
69
330
1F
100
AcDbEntity
  8
0
  6
Continuous
 62
     7
370
    30
100
AcDbLine
 10
8.1955993649
 20
4.6847121239
 30
0.0
 11
8.1787974257
 21
4.6750114826
 31
0.0
  0
LINE
  5
6A
330
1F
100
AcDbEntity
  8
0
  6
Continuous
 62
     7
370
    30
100
AcDbLine
 10
8.1955993649
 20
4.9069343434
 30
0.0
 11
8.1741786524
 21
4.894567113
 31
0.0
  0
LINE
  5
6B
330
1F
100
AcDbEntity
  8
0
  6
Continuous
 62
     7
370
    30
100
AcDbLine
 10
8.1710994213
 20
5.0594559415
 30
0.0
 11
8.1955993649
 21
5.0453108382
 31
0.0
  0
LINE
  5
6C
330
1F
100
AcDbEntity
  8
0
  6
Continuous
 62
     7
370
    30
100
AcDbLine
 10
8.3365994027
 20
5.0453108382
 30
0.0
 11
8.3610993464
 21
5.0594559415
 31
0.0
  0
LINE
  5
6D
330
1F
100
AcDbEntity
  8
0
  6
Continuous
 62
     7
370
    30
100
AcDbLine
 10
8.3610993464
 20
6.8927893627
 30
0.0
 11
8.3365994027
 21
6.9069343192
 31
0.0
  0
LINE
  5
6E
330
1F
100
AcDbEntity
  8
0
  6
Continuous
 62
     7
370
    30
100
AcDbLine
 10
8.1955993649
 20
6.9069343192
 30
0.0
 11
8.1710994213
 21
6.8927893627
 31
0.0
  0
LINE
  5
6F
330
1F
100
AcDbEntity
  8
0
  6
Continuous
 62
     7
370
    30
100
AcDbLine
 10
8.1710994213
 20
6.8927893627
 30
0.0
 11
8.1955993649
 21
6.8786441127
 31
0.0
  0
LINE
  5
70
330
1F
100
AcDbEntity
  8
0
  6
Continuous
 62
     7
370
    30
100
AcDbLine
 10
8.3365994027
 20
6.8786441127
 30
0.0
 11
8.3610993464
 21
6.8927893627
 31
0.0
  0
LINE
  5
71
330
1F
100
AcDbEntity
  8
0
  6
Continuous
 62
     7
370
    30
100
AcDbLine
 10
8.1710994213
 20
5.8372337832
 30
0.0
 11
8.1955993649
 21
5.8230886799
 31
0.0
  0
LINE
  5
72
330
1F
100
AcDbEntity
  8
0
  6
Continuous
 62
     7
370
    30
100
AcDbLine
 10
8.3365994027
 20
5.8230886799
 30
0.0
 11
8.3610993464
 21
5.8372337832
 31
0.0
  0
LINE
  5
73
330
1F
100
AcDbEntity
  8
0
  6
Continuous
 62
     7
370
    30
100
AcDbLine
 10
8.3610993464
 20
5.9483448196
 30
0.0
 11
8.3365994027
 21
5.9624899229
 31
0.0
  0
LINE
  5
74
330
1F
100
AcDbEntity
  8
0
  6
Continuous
 62
     7
370
    30
100
AcDbLine
 10
8.1955993649
 20
5.9624899229
 30
0.0
 11
8.1710994213
 21
5.9483448196
 31
0.0
  0
LINE
  5
75
330
1F
100
AcDbEntity
  8
0
  6
Continuous
 62
     7
370
    30
100
AcDbLine
 10
8.1710994213
 20
6.0039003378
 30
0.0
 11
8.1955993649
 21
5.9897552346
 31
0.0
  0
LINE
  5
76
330
1F
100
AcDbEntity
  8
0
  6
Continuous
 62
     7
370
    30
100
AcDbLine
 10
8.3365994027
 20
5.9897552346
 30
0.0
 11
8.3610993464
 21
6.0039003378
 31
0.0
  0
LINE
  5
77
330
1F
100
AcDbEntity
  8
0
  6
Continuous
 62
     7
370
    30
100
AcDbLine
 10
8.1936160145
 20
5.1020115165
 30
0.0
 11
8.1955993649
 21
5.1008663564
 31
0.0
  0
LINE
  5
78
330
1F
100
AcDbEntity
  8
0
  6
Continuous
 62
     7
370
    30
100
AcDbLine
 10
8.3365994027
 20
5.1008663564
 30
0.0
 11
8.3385827532
 21
5.1020115165
 31
0.0
  0
LINE
  5
79
330
1F
100
AcDbEntity
  8
0
  6
Continuous
 62
     7
370
    30
100
AcDbLine
 10
8.1817459783
 20
4.8866424378
 30
0.0
 11
8.1955993649
 21
4.8786442102
 31
0.0
  0
LINE
  5
7A
330
1F
100
AcDbEntity
  8
0
  6
Continuous
 62
     7
370
    30
100
AcDbLine
 10
8.1710994213
 20
6.1150115209
 30
0.0
 11
8.1955993649
 21
6.1008664177
 31
0.0
  0
LINE
  5
7B
330
1F
100
AcDbEntity
  8
0
  6
Continuous
 62
     7
370
    30
100
AcDbLine
 10
8.3365994027
 20
6.1008664177
 30
0.0
 11
8.3610993464
 21
6.1150115209
 31
0.0
  0
LINE
  5
7C
330
1F
100
AcDbEntity
  8
0
  6
Continuous
 62
     7
370
    30
100
AcDbLine
 10
8.3610993464
 20
5.7261226001
 30
0.0
 11
8.3365994027
 21
5.7402677033
 31
0.0
  0
LINE
  5
7D
330
1F
100
AcDbEntity
  8
0
  6
Continuous
 62
     7
370
    30
100
AcDbLine
 10
8.1955993649
 20
5.7402677033
 30
0.0
 11
8.1710994213
 21
5.7261226001
 31
0.0
  0
LINE
  5
7E
330
1F
100
AcDbEntity
  8
0
  6
Continuous
 62
     7
370
    30
100
AcDbLine
 10
8.3610993464
 20
5.7816781183
 30
0.0
 11
8.3365994027
 21
5.7958232216
 31
0.0
  0
LINE
  5
7F
330
1F
100
AcDbEntity
  8
0
  6
Continuous
 62
     7
370
    30
100
AcDbLine
 10
8.1955993649
 20
5.7958232216
 30
0.0
 11
8.1710994213
 21
5.7816781183
 31
0.0
  0
LINE
  5
80
330
1F
100
AcDbEntity
  8
0
  6
Continuous
 62
     7
370
    30
100
AcDbLine
 10
8.3610993464
 20
5.8372337832
 30
0.0
 11
8.3365994027
 21
5.8513787398
 31
0.0
  0
LINE
  5
81
330
1F
100
AcDbEntity
  8
0
  6
Continuous
 62
     7
370
    30
100
AcDbLine
 10
8.1955993649
 20
5.8513787398
 30
0.0
 11
8.1710994213
 21
5.8372337832
 31
0.0
  0
LINE
  5
82
330
1F
100
AcDbEntity
  8
0
  6
Continuous
 62
     7
370
    30
100
AcDbLine
 10
8.3433561114
 20
4.8474778303
 30
0.0
 11
8.3365994027
 21
4.8513788252
 31
0.0
  0
LINE
  5
83
330
1F
100
AcDbEntity
  8
0
  6
Continuous
 62
     7
370
    30
100
AcDbLine
 10
8.1955993649
 20
4.8513788252
 30
0.0
 11
8.1710994213
 21
4.8372337219
 31
0.0
  0
LINE
  5
84
330
1F
100
AcDbEntity
  8
0
  6
Continuous
 62
     7
370
    30
100
AcDbLine
 10
8.3610993464
 20
6.0594560027
 30
0.0
 11
8.3365994027
 21
6.0736009593
 31
0.0
  0
LINE
  5
85
330
1F
100
AcDbEntity
  8
0
  6
Continuous
 62
     7
370
    30
100
AcDbLine
 10
8.1955993649
 20
6.0736009593
 30
0.0
 11
8.1710994213
 21
6.0594560027
 31
0.0
  0
LINE
  5
86
330
1F
100
AcDbEntity
  8
0
  6
Continuous
 62
     7
370
    30
100
AcDbLine
 10
8.3610993464
 20
6.1150115209
 30
0.0
 11
8.3365994027
 21
6.1291566242
 31
0.0
  0
LINE
  5
87
330
1F
100
AcDbEntity
  8
0
  6
Continuous
 62
     7
370
    30
100
AcDbLine
 10
8.1955993649
 20
6.1291566242
 30
0.0
 11
8.1710994213
 21
6.1150115209
 31
0.0
  0
LINE
  5
88
330
1F
100
AcDbEntity
  8
0
  6
Continuous
 62
     7
370
    30
100
AcDbLine
 10
8.1710994213
 20
6.1705670392
 30
0.0
 11
8.1955993649
 21
6.1564219359
 31
0.0
  0
LINE
  5
89
330
1F
100
AcDbEntity
  8
0
  6
Continuous
 62
     7
370
    30
100
AcDbLine
 10
8.3365994027
 20
6.1564219359
 30
0.0
 11
8.3610993464
 21
6.1705670392
 31
0.0
  0
LINE
  5
8A
330
1F
100
AcDbEntity
  8
0
  6
Continuous
 62
     7
370
    30
100
AcDbLine
 10
8.3610993464
 20
6.7261225147
 30
0.0
 11
8.3365994027
 21
6.7402677646
 31
0.0
  0
LINE
  5
8B
330
1F
100
AcDbEntity
  8
0
  6
Continuous
 62
     7
370
    30
100
AcDbLine
 10
8.1955993649
 20
6.7402677646
 30
0.0
 11
8.1710994213
 21
6.7261225147
 31
0.0
  0
LINE
  5
8C
330
1F
100
AcDbEntity
  8
0
  6
Continuous
 62
     7
370
    30
100
AcDbLine
 10
8.3610993464
 20
6.1705670392
 30
0.0
 11
8.3365994027
 21
6.1847121424
 31
0.0
  0
LINE
  5
8D
330
1F
100
AcDbEntity
  8
0
  6
Continuous
 62
     7
370
    30
100
AcDbLine
 10
8.1955993649
 20
6.1847121424
 30
0.0
 11
8.1710994213
 21
6.1705670392
 31
0.0
  0
LINE
  5
8E
330
1F
100
AcDbEntity
  8
0
  6
Continuous
 62
     7
370
    30
100
AcDbLine
 10
8.3610993464
 20
5.0594559415
 30
0.0
 11
8.3365994027
 21
5.0736010447
 31
0.0
  0
LINE
  5
8F
330
1F
100
AcDbEntity
  8
0
  6
Continuous
 62
     7
370
    30
100
AcDbLine
 10
8.1955993649
 20
5.0736010447
 30
0.0
 11
8.1710994213
 21
5.0594559415
 31
0.0
  0
LINE
  5
90
330
1F
100
AcDbEntity
  8
0
  6
Continuous
 62
     7
370
    30
100
AcDbLine
 10
8.1710994213
 20
6.2816780756
 30
0.0
 11
8.1955993649
 21
6.267533119
 31
0.0
  0
LINE
  5
91
330
1F
100
AcDbEntity
  8
0
  6
Continuous
 62
     7
370
    30
100
AcDbLine
 10
8.3365994027
 20
6.267533119
 30
0.0
 11
8.3610993464
 21
6.2816780756
 31
0.0
  0
LINE
  5
92
330
1F
100
AcDbEntity
  8
0
  6
Continuous
 62
     7
370
    30
100
AcDbLine
 10
8.3610993464
 20
6.8372338444
 30
0.0
 11
8.3365994027
 21
6.851378801
 31
0.0
  0
LINE
  5
93
330
1F
100
AcDbEntity
  8
0
  6
Continuous
 62
     7
370
    30
100
AcDbLine
 10
8.1955993649
 20
6.851378801
 30
0.0
 11
8.1710994213
 21
6.8372338444
 31
0.0
  0
LINE
  5
94
330
1F
100
AcDbEntity
  8
0
  6
Continuous
 62
     7
370
    30
100
AcDbLine
 10
8.1710994213
 20
5.7261226001
 30
0.0
 11
8.1955993649
 21
5.7119774968
 31
0.0
  0
LINE
  5
95
330
1F
100
AcDbEntity
  8
0
  6
Continuous
 62
     7
370
    30
100
AcDbLine
 10
8.3365994027
 20
5.7119774968
 30
0.0
 11
8.3610993464
 21
5.7261226001
 31
0.0
  0
LINE
  5
96
330
1F
100
AcDbEntity
  8
0
  6
Continuous
 62
     7
370
    30
100
AcDbLine
 10
8.1710994213
 20
6.3372335938
 30
0.0
 11
8.1955993649
 21
6.3230886372
 31
0.0
  0
LINE
  5
97
330
1F
100
AcDbEntity
  8
0
  6
Continuous
 62
     7
370
    30
100
AcDbLine
 10
8.3365994027
 20
6.3230886372
 30
0.0
 11
8.3610993464
 21
6.3372335938
 31
0.0
  0
LINE
  5
98
330
1F
100
AcDbEntity
  8
0
  6
Continuous
 62
     7
370
    30
100
AcDbLine
 10
8.1710994213
 20
5.8927893014
 30
0.0
 11
8.1955993649
 21
5.8786441981
 31
0.0
  0
LINE
  5
99
330
1F
100
AcDbEntity
  8
0
  6
Continuous
 62
     7
370
    30
100
AcDbLine
 10
8.3365994027
 20
5.8786441981
 30
0.0
 11
8.3610993464
 21
5.8927893014
 31
0.0
  0
LINE
  5
9A
330
1F
100
AcDbEntity
  8
0
  6
Continuous
 62
     7
370
    30
100
AcDbLine
 10
8.3610993464
 20
5.8927893014
 30
0.0
 11
8.3365994027
 21
5.9069344047
 31
0.0
  0
LINE
  5
9B
330
1F
100
AcDbEntity
  8
0
  6
Continuous
 62
     7
370
    30
100
AcDbLine
 10
8.1955993649
 20
5.9069344047
 30
0.0
 11
8.1710994213
 21
5.8927893014
 31
0.0
  0
LINE
  5
9C
330
1F
100
AcDbEntity
  8
0
  6
Continuous
 62
     7
370
    30
100
AcDbLine
 10
8.3610993464
 20
6.0039003378
 30
0.0
 11
8.3365994027
 21
6.0180454411
 31
0.0
  0
LINE
  5
9D
330
1F
100
AcDbEntity
  8
0
  6
Continuous
 62
     7
370
    30
100
AcDbLine
 10
8.1955993649
 20
6.0180454411
 30
0.0
 11
8.1710994213
 21
6.0039003378
 31
0.0
  0
LINE
  5
9E
330
1F
100
AcDbEntity
  8
0
  6
Continuous
 62
     7
370
    30
100
AcDbLine
 10
8.1710994213
 20
6.0594560027
 30
0.0
 11
8.1955993649
 21
6.0453108995
 31
0.0
  0
LINE
  5
9F
330
1F
100
AcDbEntity
  8
0
  6
Continuous
 62
     7
370
    30
100
AcDbLine
 10
8.3365994027
 20
6.0453108995
 30
0.0
 11
8.3610993464
 21
6.0594560027
 31
0.0
  0
LINE
  5
A0
330
1F
100
AcDbEntity
  8
0
  6
Continuous
 62
     7
370
    30
100
AcDbLine
 10
8.3610993464
 20
6.6705669965
 30
0.0
 11
8.3365994027
 21
6.6847122464
 31
0.0
  0
LINE
  5
A1
330
1F
100
AcDbEntity
  8
0
  6
Continuous
 62
     7
370
    30
100
AcDbLine
 10
8.1955993649
 20
6.6847122464
 30
0.0
 11
8.1710994213
 21
6.6705669965
 31
0.0
  0
LINE
  5
A2
330
1F
100
AcDbEntity
  8
0
  6
Continuous
 62
     7
370
    30
100
AcDbLine
 10
8.1710994213
 20
6.8372338444
 30
0.0
 11
8.1955993649
 21
6.8230885945
 31
0.0
  0
LINE
  5
A3
330
1F
100
AcDbEntity
  8
0
  6
Continuous
 62
     7
370
    30
100
AcDbLine
 10
8.3365994027
 20
6.8230885945
 30
0.0
 11
8.3610993464
 21
6.8372338444
 31
0.0
  0
LINE
  5
A4
330
1F
100
AcDbEntity
  8
0
  6
Continuous
 62
     7
370
    30
100
AcDbLine
 10
8.1710994213
 20
6.7816780329
 30
0.0
 11
8.1955993649
 21
6.7675330763
 31
0.0
  0
LINE
  5
A5
330
1F
100
AcDbEntity
  8
0
  6
Continuous
 62
     7
370
    30
100
AcDbLine
 10
8.3365994027
 20
6.7675330763
 30
0.0
 11
8.3610993464
 21
6.7816780329
 31
0.0
  0
LINE
  5
A6
330
1F
100
AcDbEntity
  8
0
  6
Continuous
 62
     7
370
    30
100
AcDbLine
 10
8.1710994213
 20
6.3927894054
 30
0.0
 11
8.1955993649
 21
6.3786441554
 31
0.0
  0
LINE
  5
A7
330
1F
100
AcDbEntity
  8
0
  6
Continuous
 62
     7
370
    30
100
AcDbLine
 10
8.3365994027
 20
6.3786441554
 30
0.0
 11
8.3610993464
 21
6.3927894054
 31
0.0
  0
LINE
  5
A8
330
1F
100
AcDbEntity
  8
0
  6
Continuous
 62
     7
370
    30
100
AcDbLine
 10
8.3610993464
 20
6.3927894054
 30
0.0
 11
8.3365994027
 21
6.406934362
 31
0.0
  0
LINE
  5
A9
330
1F
100
AcDbEntity
  8
0
  6
Continuous
 62
     7
370
    30
100
AcDbLine
 10
8.1955993649
 20
6.406934362
 30
0.0
 11
8.1710994213
 21
6.3927894054
 31
0.0
  0
LINE
  5
AA
330
1F
100
AcDbEntity
  8
0
  6
Continuous
 62
     7
370
    30
100
AcDbLine
 10
8.3610993464
 20
6.3372335938
 30
0.0
 11
8.3365994027
 21
6.3513788437
 31
0.0
  0
LINE
  5
AB
330
1F
100
AcDbEntity
  8
0
  6
Continuous
 62
     7
370
    30
100
AcDbLine
 10
8.1955993649
 20
6.3513788437
 30
0.0
 11
8.1710994213
 21
6.3372335938
 31
0.0
  0
LINE
  5
AC
330
1F
100
AcDbEntity
  8
0
  6
Continuous
 62
     7
370
    30
100
AcDbLine
 10
8.3610993464
 20
6.7816780329
 30
0.0
 11
8.3365994027
 21
6.7958232828
 31
0.0
  0
LINE
  5
AD
330
1F
100
AcDbEntity
  8
0
  6
Continuous
 62
     7
370
    30
100
AcDbLine
 10
8.1955993649
 20
6.7958232828
 30
0.0
 11
8.1710994213
 21
6.7816780329
 31
0.0
  0
LINE
  5
AE
330
1F
100
AcDbEntity
  8
0
  6
Continuous
 62
     7
370
    30
100
AcDbLine
 10
8.1710994213
 20
6.55945596
 30
0.0
 11
8.1738558428
 21
6.5578643517
 31
0.0
  0
LINE
  5
AF
330
1F
100
AcDbEntity
  8
0
  6
Continuous
 62
     7
370
    30
100
AcDbLine
 10
8.3583429249
 20
6.5578643517
 30
0.0
 11
8.3610993464
 21
6.55945596
 31
0.0
  0
LINE
  5
B0
330
1F
100
AcDbEntity
  8
0
  6
Continuous
 62
     7
370
    30
100
AcDbLine
 10
8.1710994213
 20
6.6705669965
 30
0.0
 11
8.1955993649
 21
6.6564220399
 31
0.0
  0
LINE
  5
B1
330
1F
100
AcDbEntity
  8
0
  6
Continuous
 62
     7
370
    30
100
AcDbLine
 10
8.3365994027
 20
6.6564220399
 30
0.0
 11
8.3610993464
 21
6.6705669965
 31
0.0
  0
LINE
  5
B2
330
1F
100
AcDbEntity
  8
0
  6
Continuous
 62
     7
370
    30
100
AcDbLine
 10
8.3610993464
 20
6.4483449236
 30
0.0
 11
8.3365994027
 21
6.4624898802
 31
0.0
  0
LINE
  5
B3
330
1F
100
AcDbEntity
  8
0
  6
Continuous
 62
     7
370
    30
100
AcDbLine
 10
8.1955993649
 20
6.4624898802
 30
0.0
 11
8.1710994213
 21
6.4483449236
 31
0.0
  0
LINE
  5
B4
330
1F
100
AcDbEntity
  8
0
  6
Continuous
 62
     7
370
    30
100
AcDbLine
 10
8.3610993464
 20
6.6150114782
 30
0.0
 11
8.3365994027
 21
6.6291564348
 31
0.0
  0
LINE
  5
B5
330
1F
100
AcDbEntity
  8
0
  6
Continuous
 62
     7
370
    30
100
AcDbLine
 10
8.1955993649
 20
6.6291564348
 30
0.0
 11
8.1710994213
 21
6.6150114782
 31
0.0
  0
LINE
  5
B6
330
1F
100
AcDbEntity
  8
0
  6
Continuous
 62
     7
370
    30
100
AcDbLine
 10
8.3610993464
 20
6.2816780756
 30
0.0
 11
8.3365994027
 21
6.2958233255
 31
0.0
  0
LINE
  5
B7
330
1F
100
AcDbEntity
  8
0
  6
Continuous
 62
     7
370
    30
100
AcDbLine
 10
8.1955993649
 20
6.2958233255
 30
0.0
 11
8.1710994213
 21
6.2816780756
 31
0.0
  0
LINE
  5
B8
330
1F
100
AcDbEntity
  8
0
  6
Continuous
 62
     7
370
    30
100
AcDbLine
 10
8.1710994213
 20
6.2261225574
 30
0.0
 11
8.1955993649
 21
6.2119776008
 31
0.0
  0
LINE
  5
B9
330
1F
100
AcDbEntity
  8
0
  6
Continuous
 62
     7
370
    30
100
AcDbLine
 10
8.3365994027
 20
6.2119776008
 30
0.0
 11
8.3610993464
 21
6.2261225574
 31
0.0
  0
LINE
  5
BA
330
1F
100
AcDbEntity
  8
0
  6
Continuous
 62
     7
370
    30
100
AcDbLine
 10
8.1710994213
 20
6.4483449236
 30
0.0
 11
8.1955993649
 21
6.4341996737
 31
0.0
  0
LINE
  5
BB
330
1F
100
AcDbEntity
  8
0
  6
Continuous
 62
     7
370
    30
100
AcDbLine
 10
8.3365994027
 20
6.4341996737
 30
0.0
 11
8.3610993464
 21
6.4483449236
 31
0.0
  0
LINE
  5
BC
330
1F
100
AcDbEntity
  8
0
  6
Continuous
 62
     7
370
    30
100
AcDbLine
 10
8.1710994213
 20
6.6150114782
 30
0.0
 11
8.1955993649
 21
6.6008665216
 31
0.0
  0
LINE
  5
BD
330
1F
100
AcDbEntity
  8
0
  6
Continuous
 62
     7
370
    30
100
AcDbLine
 10
8.3365994027
 20
6.6008665216
 30
0.0
 11
8.3610993464
 21
6.6150114782
 31
0.0
  0
LINE
  5
BE
330
1F
100
AcDbEntity
  8
0
  6
Continuous
 62
     7
370
    30
100
AcDbLine
 10
8.3610993464
 20
6.2261225574
 30
0.0
 11
8.3365994027
 21
6.2402676606
 31
0.0
  0
LINE
  5
BF
330
1F
100
AcDbEntity
  8
0
  6
Continuous
 62
     7
370
    30
100
AcDbLine
 10
8.1955993649
 20
6.2402676606
 30
0.0
 11
8.1710994213
 21
6.2261225574
 31
0.0
  0
LINE
  5
C0
330
1F
100
AcDbEntity
  8
0
  6
Continuous
 62
     7
370
    30
100
AcDbLine
 10
8.3610993464
 20
6.55945596
 30
0.0
 11
8.3365994027
 21
6.5736009166
 31
0.0
  0
LINE
  5
C1
330
1F
100
AcDbEntity
  8
0
  6
Continuous
 62
     7
370
    30
100
AcDbLine
 10
8.1955993649
 20
6.5736009166
 30
0.0
 11
8.1710994213
 21
6.55945596
 31
0.0
  0
LINE
  5
C2
330
1F
100
AcDbEntity
  8
0
  6
Continuous
 62
     7
370
    30
100
AcDbLine
 10
8.1710994213
 20
6.7261225147
 30
0.0
 11
8.1955993649
 21
6.7119775581
 31
0.0
  0
LINE
  5
C3
330
1F
100
AcDbEntity
  8
0
  6
Continuous
 62
     7
370
    30
100
AcDbLine
 10
8.3365994027
 20
6.7119775581
 30
0.0
 11
8.3610993464
 21
6.7261225147
 31
0.0
  0
LINE
  5
C4
330
1F
100
AcDbEntity
  8
0
  6
Continuous
 62
     7
370
    30
100
AcDbLine
 10
8.3365994027
 20
5.9624899229
 30
0.0
 11
8.3365994027
 21
5.9897552346
 31
0.0
  0
LINE
  5
C5
330
1F
100
AcDbEntity
  8
0
  6
Continuous
 62
     7
370
    30
100
AcDbLine
 10
8.1955993649
 20
5.9897552346
 30
0.0
 11
8.1955993649
 21
5.9624899229
 31
0.0
  0
LINE
  5
C6
330
1F
100
AcDbEntity
  8
0
  6
Continuous
 62
     7
370
    30
100
AcDbLine
 10
8.3365994027
 20
6.944809375
 30
0.0
 11
8.2660993105
 21
7.1150114355
 31
0.0
  0
LINE
  5
C7
330
1F
100
AcDbEntity
  8
0
  6
Continuous
 62
     7
370
    30
100
AcDbLine
 10
8.2660993105
 20
7.1150114355
 30
0.0
 11
8.1955993649
 21
6.944809375
 31
0.0
  0
LINE
  5
C8
330
1F
100
AcDbEntity
  8
0
  6
Continuous
 62
     7
370
    30
100
AcDbLine
 10
8.3365994027
 20
6.4624898802
 30
0.0
 11
8.3365994027
 21
6.4770613385
 31
0.0
  0
LINE
  5
C9
330
1F
100
AcDbEntity
  8
0
  6
Continuous
 62
     7
370
    30
100
AcDbLine
 10
8.1955993649
 20
6.4770613385
 30
0.0
 11
8.1955993649
 21
6.4624898802
 31
0.0
  0
LINE
  5
CA
330
1F
100
AcDbEntity
  8
0
  6
Continuous
 62
     7
370
    30
100
AcDbLine
 10
8.3365994027
 20
6.2402676606
 30
0.0
 11
8.3365994027
 21
6.267533119
 31
0.0
  0
LINE
  5
CB
330
1F
100
AcDbEntity
  8
0
  6
Continuous
 62
     7
370
    30
100
AcDbLine
 10
8.1955993649
 20
6.267533119
 30
0.0
 11
8.1955993649
 21
6.2402676606
 31
0.0
  0
LINE
  5
CC
330
1F
100
AcDbEntity
  8
0
  6
Continuous
 62
     7
370
    30
100
AcDbLine
 10
8.3365994027
 20
6.7402677646
 30
0.0
 11
8.3365994027
 21
6.7675330763
 31
0.0
  0
LINE
  5
CD
330
1F
100
AcDbEntity
  8
0
  6
Continuous
 62
     7
370
    30
100
AcDbLine
 10
8.1955993649
 20
6.7675330763
 30
0.0
 11
8.1955993649
 21
6.7402677646
 31
0.0
  0
LINE
  5
CE
330
1F
100
AcDbEntity
  8
0
  6
Continuous
 62
     7
370
    30
100
AcDbLine
 10
8.3365994027
 20
6.7958232828
 30
0.0
 11
8.3365994027
 21
6.8230885945
 31
0.0
  0
LINE
  5
CF
330
1F
100
AcDbEntity
  8
0
  6
Continuous
 62
     7
370
    30
100
AcDbLine
 10
8.1955993649
 20
6.8230885945
 30
0.0
 11
8.1955993649
 21
6.7958232828
 31
0.0
  0
LINE
  5
D0
330
1F
100
AcDbEntity
  8
0
  6
Continuous
 62
     7
370
    30
100
AcDbLine
 10
8.3365994027
 20
6.9069343192
 30
0.0
 11
8.3365994027
 21
6.944809375
 31
0.0
  0
LINE
  5
D1
330
1F
100
AcDbEntity
  8
0
  6
Continuous
 62
     7
370
    30
100
AcDbLine
 10
8.1955993649
 20
6.944809375
 30
0.0
 11
8.1955993649
 21
6.9069343192
 31
0.0
  0
LINE
  5
D2
330
1F
100
AcDbEntity
  8
0
  6
Continuous
 62
     7
370
    30
100
AcDbLine
 10
8.3365994027
 20
6.2958233255
 30
0.0
 11
8.3365994027
 21
6.3230886372
 31
0.0
  0
LINE
  5
D3
330
1F
100
AcDbEntity
  8
0
  6
Continuous
 62
     7
370
    30
100
AcDbLine
 10
8.1955993649
 20
6.3230886372
 30
0.0
 11
8.1955993649
 21
6.2958233255
 31
0.0
  0
LINE
  5
D4
330
1F
100
AcDbEntity
  8
0
  6
Continuous
 62
     7
370
    30
100
AcDbLine
 10
8.3365994027
 20
6.0180454411
 30
0.0
 11
8.3365994027
 21
6.0453108995
 31
0.0
  0
LINE
  5
D5
330
1F
100
AcDbEntity
  8
0
  6
Continuous
 62
     7
370
    30
100
AcDbLine
 10
8.1955993649
 20
6.0453108995
 30
0.0
 11
8.1955993649
 21
6.0180454411
 31
0.0
  0
LINE
  5
D6
330
1F
100
AcDbEntity
  8
0
  6
Continuous
 62
     7
370
    30
100
AcDbLine
 10
8.3365994027
 20
6.1291566242
 30
0.0
 11
8.3365994027
 21
6.1564219359
 31
0.0
  0
LINE
  5
D7
330
1F
100
AcDbEntity
  8
0
  6
Continuous
 62
     7
370
    30
100
AcDbLine
 10
8.1955993649
 20
6.1564219359
 30
0.0
 11
8.1955993649
 21
6.1291566242
 31
0.0
  0
LINE
  5
D8
330
1F
100
AcDbEntity
  8
0
  6
Continuous
 62
     7
370
    30
100
AcDbLine
 10
8.3365994027
 20
6.0736009593
 30
0.0
 11
8.3365994027
 21
6.1008664177
 31
0.0
  0
LINE
  5
D9
330
1F
100
AcDbEntity
  8
0
  6
Continuous
 62
     7
370
    30
100
AcDbLine
 10
8.1955993649
 20
6.1008664177
 30
0.0
 11
8.1955993649
 21
6.0736009593
 31
0.0
  0
LINE
  5
DA
330
1F
100
AcDbEntity
  8
0
  6
Continuous
 62
     7
370
    30
100
AcDbLine
 10
8.3365994027
 20
6.851378801
 30
0.0
 11
8.3365994027
 21
6.8786441127
 31
0.0
  0
LINE
  5
DB
330
1F
100
AcDbEntity
  8
0
  6
Continuous
 62
     7
370
    30
100
AcDbLine
 10
8.1955993649
 20
6.8786441127
 30
0.0
 11
8.1955993649
 21
6.851378801
 31
0.0
  0
LINE
  5
DC
330
1F
100
AcDbEntity
  8
0
  6
Continuous
 62
     7
370
    30
100
AcDbLine
 10
8.3365994027
 20
5.8513787398
 30
0.0
 11
8.3365994027
 21
5.8786441981
 31
0.0
  0
LINE
  5
DD
330
1F
100
AcDbEntity
  8
0
  6
Continuous
 62
     7
370
    30
100
AcDbLine
 10
8.1955993649
 20
5.8786441981
 30
0.0
 11
8.1955993649
 21
5.8513787398
 31
0.0
  0
LINE
  5
DE
330
1F
100
AcDbEntity
  8
0
  6
Continuous
 62
     7
370
    30
100
AcDbLine
 10
8.3365994027
 20
6.3513788437
 30
0.0
 11
8.3365994027
 21
6.3786441554
 31
0.0
  0
LINE
  5
DF
330
1F
100
AcDbEntity
  8
0
  6
Continuous
 62
     7
370
    30
100
AcDbLine
 10
8.1955993649
 20
6.3786441554
 30
0.0
 11
8.1955993649
 21
6.3513788437
 31
0.0
  0
LINE
  5
E0
330
1F
100
AcDbEntity
  8
0
  6
Continuous
 62
     7
370
    30
100
AcDbLine
 10
8.3365994027
 20
6.1847121424
 30
0.0
 11
8.3365994027
 21
6.2119776008
 31
0.0
  0
LINE
  5
E1
330
1F
100
AcDbEntity
  8
0
  6
Continuous
 62
     7
370
    30
100
AcDbLine
 10
8.1955993649
 20
6.2119776008
 30
0.0
 11
8.1955993649
 21
6.1847121424
 31
0.0
  0
LINE
  5
E2
330
1F
100
AcDbEntity
  8
0
  6
Continuous
 62
     7
370
    30
100
AcDbLine
 10
8.3365994027
 20
4.9140236882
 30
0.0
 11
8.3365994027
 21
4.9341997284
 31
0.0
  0
LINE
  5
E3
330
1F
100
AcDbEntity
  8
0
  6
Continuous
 62
     7
370
    30
100
AcDbLine
 10
8.1955993649
 20
4.9341997284
 30
0.0
 11
8.1955993649
 21
4.9069343434
 31
0.0
  0
LINE
  5
E4
330
1F
100
AcDbEntity
  8
0
  6
Continuous
 62
     7
370
    30
100
AcDbLine
 10
8.3365994027
 20
4.8083534089
 30
0.0
 11
8.3365994027
 21
4.8230886187
 31
0.0
  0
LINE
  5
E5
330
1F
100
AcDbEntity
  8
0
  6
Continuous
 62
     7
370
    30
100
AcDbLine
 10
8.1955993649
 20
4.8230886187
 30
0.0
 11
8.1955993649
 21
4.7958232337
 31
0.0
  0
LINE
  5
E6
330
1F
100
AcDbEntity
  8
0
  6
Continuous
 62
     7
370
    30
100
AcDbLine
 10
8.3365994027
 20
5.9069344047
 30
0.0
 11
8.3365994027
 21
5.9341997164
 31
0.0
  0
LINE
  5
E7
330
1F
100
AcDbEntity
  8
0
  6
Continuous
 62
     7
370
    30
100
AcDbLine
 10
8.1955993649
 20
5.9341997164
 30
0.0
 11
8.1955993649
 21
5.9069344047
 31
0.0
  0
LINE
  5
E8
330
1F
100
AcDbEntity
  8
0
  6
Continuous
 62
     7
370
    30
100
AcDbLine
 10
8.3365994027
 20
5.7958232216
 30
0.0
 11
8.3365994027
 21
5.8230886799
 31
0.0
  0
LINE
  5
E9
330
1F
100
AcDbEntity
  8
0
  6
Continuous
 62
     7
370
    30
100
AcDbLine
 10
8.1955993649
 20
5.8230886799
 30
0.0
 11
8.1955993649
 21
5.7958232216
 31
0.0
  0
LINE
  5
EA
330
1F
100
AcDbEntity
  8
0
  6
Continuous
 62
     7
370
    30
100
AcDbLine
 10
8.3365994027
 20
5.0736010447
 30
0.0
 11
8.3365994027
 21
5.1008663564
 31
0.0
  0
LINE
  5
EB
330
1F
100
AcDbEntity
  8
0
  6
Continuous
 62
     7
370
    30
100
AcDbLine
 10
8.1955993649
 20
5.1008663564
 30
0.0
 11
8.1955993649
 21
5.0736010447
 31
0.0
  0
LINE
  5
EC
330
1F
100
AcDbEntity
  8
0
  6
Continuous
 62
     7
370
    30
100
AcDbLine
 10
8.3365994027
 20
5.6960115479
 30
0.0
 11
8.3365994027
 21
5.7119774968
 31
0.0
  0
LINE
  5
ED
330
1F
100
AcDbEntity
  8
0
  6
Continuous
 62
     7
370
    30
100
AcDbLine
 10
8.1955993649
 20
5.7119774968
 30
0.0
 11
8.1955993649
 21
5.6960115479
 31
0.0
  0
LINE
  5
EE
330
1F
100
AcDbEntity
  8
0
  6
Continuous
 62
     7
370
    30
100
AcDbLine
 10
8.3365994027
 20
6.6847122464
 30
0.0
 11
8.3365994027
 21
6.7119775581
 31
0.0
  0
LINE
  5
EF
330
1F
100
AcDbEntity
  8
0
  6
Continuous
 62
     7
370
    30
100
AcDbLine
 10
8.1955993649
 20
6.7119775581
 30
0.0
 11
8.1955993649
 21
6.6847122464
 31
0.0
  0
LINE
  5
F0
330
1F
100
AcDbEntity
  8
0
  6
Continuous
 62
     7
370
    30
100
AcDbLine
 10
8.3365994027
 20
6.6291564348
 30
0.0
 11
8.3365994027
 21
6.6564220399
 31
0.0
  0
LINE
  5
F1
330
1F
100
AcDbEntity
  8
0
  6
Continuous
 62
     7
370
    30
100
AcDbLine
 10
8.1955993649
 20
6.6564220399
 30
0.0
 11
8.1955993649
 21
6.6291564348
 31
0.0
  0
LINE
  5
F2
330
1F
100
AcDbEntity
  8
0
  6
Continuous
 62
     7
370
    30
100
AcDbLine
 10
8.3365994027
 20
6.406934362
 30
0.0
 11
8.3365994027
 21
6.4341996737
 31
0.0
  0
LINE
  5
F3
330
1F
100
AcDbEntity
  8
0
  6
Continuous
 62
     7
370
    30
100
AcDbLine
 10
8.1955993649
 20
6.4341996737
 30
0.0
 11
8.1955993649
 21
6.406934362
 31
0.0
  0
LINE
  5
F4
330
1F
100
AcDbEntity
  8
0
  6
Continuous
 62
     7
370
    30
100
AcDbLine
 10
8.3365994027
 20
4.8513788252
 30
0.0
 11
8.3365994027
 21
4.8640720919
 31
0.0
  0
LINE
  5
F5
330
1F
100
AcDbEntity
  8
0
  6
Continuous
 62
     7
370
    30
100
AcDbLine
 10
8.1955993649
 20
4.8786442102
 30
0.0
 11
8.1955993649
 21
4.8513788252
 31
0.0
  0
LINE
  5
F6
330
1F
100
AcDbEntity
  8
0
  6
Continuous
 62
     7
370
    30
100
AcDbLine
 10
8.3365994027
 20
4.962489935
 30
0.0
 11
8.3365994027
 21
4.9697423712
 31
0.0
  0
LINE
  5
F7
330
1F
100
AcDbEntity
  8
0
  6
Continuous
 62
     7
370
    30
100
AcDbLine
 10
8.3365994027
 20
4.984470541
 30
0.0
 11
8.3365994027
 21
4.98975532
 31
0.0
  0
LINE
  5
F8
330
1F
100
AcDbEntity
  8
0
  6
Continuous
 62
     7
370
    30
100
AcDbLine
 10
8.1955993649
 20
4.98975532
 30
0.0
 11
8.1955993649
 21
4.962489935
 31
0.0
  0
LINE
  5
F9
330
1F
100
AcDbEntity
  8
0
  6
Continuous
 62
     7
370
    30
100
AcDbLine
 10
8.3365994027
 20
5.7402677033
 30
0.0
 11
8.3365994027
 21
5.767533015
 31
0.0
  0
LINE
  5
FA
330
1F
100
AcDbEntity
  8
0
  6
Continuous
 62
     7
370
    30
100
AcDbLine
 10
8.1955993649
 20
5.767533015
 30
0.0
 11
8.1955993649
 21
5.7402677033
 31
0.0
  0
LINE
  5
FB
330
1F
100
AcDbEntity
  8
0
  6
Continuous
 62
     7
370
    30
100
AcDbLine
 10
8.3365994027
 20
5.0180454532
 30
0.0
 11
8.3365994027
 21
5.0453108382
 31
0.0
  0
LINE
  5
FC
330
1F
100
AcDbEntity
  8
0
  6
Continuous
 62
     7
370
    30
100
AcDbLine
 10
8.1955993649
 20
5.0453108382
 30
0.0
 11
8.1955993649
 21
5.0180454532
 31
0.0
  0
LINE
  5
FD
330
1F
100
AcDbEntity
  8
0
  6
Continuous
 62
     7
370
    30
100
AcDbLine
 10
8.3365994027
 20
4.7402677154
 30
0.0
 11
8.3365994027
 21
4.7584018126
 31
0.0
  0
LINE
  5
FE
330
1F
100
AcDbEntity
  8
0
  6
Continuous
 62
     7
370
    30
100
AcDbLine
 10
8.1955993649
 20
4.7675331005
 30
0.0
 11
8.1955993649
 21
4.7402677154
 31
0.0
  0
LINE
  5
FF
330
1F
100
AcDbEntity
  8
0
  6
Continuous
 62
     7
370
    30
100
AcDbLine
 10
8.3365994027
 20
6.5736009166
 30
0.0
 11
8.3365994027
 21
6.6008665216
 31
0.0
  0
LINE
  5
100
330
1F
100
AcDbEntity
  8
0
  6
Continuous
 62
     7
370
    30
100
AcDbLine
 10
8.1955993649
 20
6.6008665216
 30
0.0
 11
8.1955993649
 21
6.5736009166
 31
0.0
  0
LINE
  5
101
330
1F
100
AcDbEntity
  8
0
  6
Continuous
 62
     7
370
    30
100
AcDbLine
 10
8.3365994027
 20
4.6847121239
 30
0.0
 11
8.3365994027
 21
4.7119775089
 31
0.0
  0
LINE
  5
102
330
1F
100
AcDbEntity
  8
0
  6
Continuous
 62
     7
370
    30
100
AcDbLine
 10
8.1955993649
 20
4.7119775089
 30
0.0
 11
8.1955993649
 21
4.6847121239
 31
0.0
  0
LINE
  5
103
330
1F
100
AcDbEntity
  8
0
  6
Continuous
 62
     7
370
    30
100
AcDbLine
 10
3.5795993427
 20
4.6150115024
 30
0.0
 11
3.5795993427
 21
4.56674516
 31
0.0
  0
LINE
  5
104
330
1F
100
AcDbEntity
  8
0
  6
Continuous
 62
     7
370
    30
100
AcDbLine
 10
3.9525993138
 20
4.56674516
 30
0.0
 11
3.9525993138
 21
4.5849558163
 31
0.0
  0
ARC
  5
105
330
1F
100
AcDbEntity
  8
0
  6
Continuous
 62
     7
370
    30
100
AcDbCircle
 10
3.599599356
 20
4.5667451345
 30
0.0
 40
0.0200000000000005
100
AcDbArc
 50
180.0
 51
241.8571552447
  0
ARC
  5
106
330
1F
100
AcDbEntity
  8
0
  6
Continuous
 62
     7
370
    30
100
AcDbCircle
 10
3.932599356
 20
4.5667451345
 30
0.0
 40
0.02
100
AcDbArc
 50
298.1428447553
 51
0.0
  0
ARC
  5
107
330
1F
100
AcDbEntity
  8
0
  6
Continuous
 62
     7
370
    30
100
AcDbCircle
 10
3.766099356
 20
4.8780114995
 30
0.0
 40
0.3729999999999998
100
AcDbArc
 50
277.6034084169
 51
298.1428447553
  0
ARC
  5
108
330
1F
100
AcDbEntity
  8
0
  6
Continuous
 62
     7
370
    30
100
AcDbCircle
 10
3.766099356
 20
4.8780114995
 30
0.0
 40
0.3729999999999997
100
AcDbArc
 50
241.8571552447
 51
262.3965915831
  0
LINE
  5
109
330
1F
100
AcDbEntity
  8
0
  6
Continuous
 62
     7
370
    30
100
AcDbLine
 10
3.8610992908
 20
5.9483448196
 30
0.0
 11
3.8365993471
 21
5.9624899229
 31
0.0
  0
LINE
  5
10A
330
1F
100
AcDbEntity
  8
0
  6
Continuous
 62
     7
370
    30
100
AcDbLine
 10
3.6955993093
 20
5.9624899229
 30
0.0
 11
3.6710993657
 21
5.9483448196
 31
0.0
  0
LINE
  5
10B
330
1F
100
AcDbEntity
  8
0
  6
Continuous
 62
     7
370
    30
100
AcDbLine
 10
3.8610992908
 20
6.8372338444
 30
0.0
 11
3.8365993471
 21
6.851378801
 31
0.0
  0
LINE
  5
10C
330
1F
100
AcDbEntity
  8
0
  6
Continuous
 62
     7
370
    30
100
AcDbLine
 10
3.6955993093
 20
6.851378801
 30
0.0
 11
3.6710993657
 21
6.8372338444
 31
0.0
  0
LINE
  5
10D
330
1F
100
AcDbEntity
  8
0
  6
Continuous
 62
     7
370
    30
100
AcDbLine
 10
3.6790270474
 20
4.7771011566
 30
0.0
 11
3.6955993093
 21
4.7675331005
 31
0.0
  0
LINE
  5
10E
330
1F
100
AcDbEntity
  8
0
  6
Continuous
 62
     7
370
    30
100
AcDbLine
 10
3.8492575609
 20
4.6774038816
 30
0.0
 11
3.8365993471
 21
4.6847121239
 31
0.0
  0
LINE
  5
10F
330
1F
100
AcDbEntity
  8
0
  6
Continuous
 62
     7
370
    30
100
AcDbLine
 10
3.6955993093
 20
4.6847121239
 30
0.0
 11
3.6787973701
 21
4.6750114826
 31
0.0
  0
LINE
  5
110
330
1F
100
AcDbEntity
  8
0
  6
Continuous
 62
     7
370
    30
100
AcDbLine
 10
3.8607170819
 20
4.726343343
 30
0.0
 11
3.8365993471
 21
4.7402677154
 31
0.0
  0
LINE
  5
111
330
1F
100
AcDbEntity
  8
0
  6
Continuous
 62
     7
370
    30
100
AcDbLine
 10
3.6955993093
 20
4.7402677154
 30
0.0
 11
3.6710993657
 21
4.7261226122
 31
0.0
  0
LINE
  5
112
330
1F
100
AcDbEntity
  8
0
  6
Continuous
 62
     7
370
    30
100
AcDbLine
 10
3.6710993657
 20
6.8927893627
 30
0.0
 11
3.6955993093
 21
6.8786441127
 31
0.0
  0
LINE
  5
113
330
1F
100
AcDbEntity
  8
0
  6
Continuous
 62
     7
370
    30
100
AcDbLine
 10
3.8365993471
 20
6.8786441127
 30
0.0
 11
3.8610992908
 21
6.8927893627
 31
0.0
  0
LINE
  5
114
330
1F
100
AcDbEntity
  8
0
  6
Continuous
 62
     7
370
    30
100
AcDbLine
 10
3.8610992908
 20
6.0039003378
 30
0.0
 11
3.8365993471
 21
6.0180454411
 31
0.0
  0
LINE
  5
115
330
1F
100
AcDbEntity
  8
0
  6
Continuous
 62
     7
370
    30
100
AcDbLine
 10
3.6955993093
 20
6.0180454411
 30
0.0
 11
3.6710993657
 21
6.0039003378
 31
0.0
  0
LINE
  5
116
330
1F
100
AcDbEntity
  8
0
  6
Continuous
 62
     7
370
    30
100
AcDbLine
 10
3.6710993657
 20
6.0594560027
 30
0.0
 11
3.6955993093
 21
6.0453108995
 31
0.0
  0
LINE
  5
117
330
1F
100
AcDbEntity
  8
0
  6
Continuous
 62
     7
370
    30
100
AcDbLine
 10
3.8365993471
 20
6.0453108995
 30
0.0
 11
3.8610992908
 21
6.0594560027
 31
0.0
  0
LINE
  5
118
330
1F
100
AcDbEntity
  8
0
  6
Continuous
 62
     7
370
    30
100
AcDbLine
 10
3.6710993657
 20
4.8372337219
 30
0.0
 11
3.6955993093
 21
4.8230886187
 31
0.0
  0
LINE
  5
119
330
1F
100
AcDbEntity
  8
0
  6
Continuous
 62
     7
370
    30
100
AcDbLine
 10
3.8365993471
 20
4.8230886187
 30
0.0
 11
3.8415877162
 21
4.8259686787
 31
0.0
  0
LINE
  5
11A
330
1F
100
AcDbEntity
  8
0
  6
Continuous
 62
     7
370
    30
100
AcDbLine
 10
3.6710993657
 20
5.7261226001
 30
0.0
 11
3.6955993093
 21
5.7119774968
 31
0.0
  0
LINE
  5
11B
330
1F
100
AcDbEntity
  8
0
  6
Continuous
 62
     7
370
    30
100
AcDbLine
 10
3.8365993471
 20
5.7119774968
 30
0.0
 11
3.8610992908
 21
5.7261226001
 31
0.0
  0
LINE
  5
11C
330
1F
100
AcDbEntity
  8
0
  6
Continuous
 62
     7
370
    30
100
AcDbLine
 10
3.6710993657
 20
4.9483448317
 30
0.0
 11
3.6955993093
 21
4.9341997284
 31
0.0
  0
LINE
  5
11D
330
1F
100
AcDbEntity
  8
0
  6
Continuous
 62
     7
370
    30
100
AcDbLine
 10
3.8365993471
 20
4.9341997284
 30
0.0
 11
3.8368758106
 21
4.9343593733
 31
0.0
  0
LINE
  5
11E
330
1F
100
AcDbEntity
  8
0
  6
Continuous
 62
     7
370
    30
100
AcDbLine
 10
3.6710993657
 20
6.2816780756
 30
0.0
 11
3.6955993093
 21
6.267533119
 31
0.0
  0
LINE
  5
11F
330
1F
100
AcDbEntity
  8
0
  6
Continuous
 62
     7
370
    30
100
AcDbLine
 10
3.8365993471
 20
6.267533119
 30
0.0
 11
3.8610992908
 21
6.2816780756
 31
0.0
  0
LINE
  5
120
330
1F
100
AcDbEntity
  8
0
  6
Continuous
 62
     7
370
    30
100
AcDbLine
 10
3.8610992908
 20
6.8927893627
 30
0.0
 11
3.8365993471
 21
6.9069343192
 31
0.0
  0
LINE
  5
121
330
1F
100
AcDbEntity
  8
0
  6
Continuous
 62
     7
370
    30
100
AcDbLine
 10
3.6955993093
 20
6.9069343192
 30
0.0
 11
3.6710993657
 21
6.8927893627
 31
0.0
  0
LINE
  5
122
330
1F
100
AcDbEntity
  8
0
  6
Continuous
 62
     7
370
    30
100
AcDbLine
 10
3.8610992908
 20
5.0594559415
 30
0.0
 11
3.8365993471
 21
5.0736010447
 31
0.0
  0
LINE
  5
123
330
1F
100
AcDbEntity
  8
0
  6
Continuous
 62
     7
370
    30
100
AcDbLine
 10
3.6955993093
 20
5.0736010447
 30
0.0
 11
3.6710993657
 21
5.0594559415
 31
0.0
  0
LINE
  5
124
330
1F
100
AcDbEntity
  8
0
  6
Continuous
 62
     7
370
    30
100
AcDbLine
 10
3.6710993657
 20
5.9483448196
 30
0.0
 11
3.6955993093
 21
5.9341997164
 31
0.0
  0
LINE
  5
125
330
1F
100
AcDbEntity
  8
0
  6
Continuous
 62
     7
370
    30
100
AcDbLine
 10
3.8365993471
 20
5.9341997164
 30
0.0
 11
3.8610992908
 21
5.9483448196
 31
0.0
  0
LINE
  5
126
330
1F
100
AcDbEntity
  8
0
  6
Continuous
 62
     7
370
    30
100
AcDbLine
 10
3.6710993657
 20
6.0039003378
 30
0.0
 11
3.6955993093
 21
5.9897552346
 31
0.0
  0
LINE
  5
127
330
1F
100
AcDbEntity
  8
0
  6
Continuous
 62
     7
370
    30
100
AcDbLine
 10
3.8365993471
 20
5.9897552346
 30
0.0
 11
3.8610992908
 21
6.0039003378
 31
0.0
  0
LINE
  5
128
330
1F
100
AcDbEntity
  8
0
  6
Continuous
 62
     7
370
    30
100
AcDbLine
 10
3.6955993093
 20
4.7958232337
 30
0.0
 11
3.6788905023
 21
4.7861764184
 31
0.0
  0
LINE
  5
129
330
1F
100
AcDbEntity
  8
0
  6
Continuous
 62
     7
370
    30
100
AcDbLine
 10
3.8610992908
 20
6.6705669965
 30
0.0
 11
3.8365993471
 21
6.6847122464
 31
0.0
  0
LINE
  5
12A
330
1F
100
AcDbEntity
  8
0
  6
Continuous
 62
     7
370
    30
100
AcDbLine
 10
3.6955993093
 20
6.6847122464
 30
0.0
 11
3.6710993657
 21
6.6705669965
 31
0.0
  0
LINE
  5
12B
330
1F
100
AcDbEntity
  8
0
  6
Continuous
 62
     7
370
    30
100
AcDbLine
 10
3.6710993657
 20
6.8372338444
 30
0.0
 11
3.6955993093
 21
6.8230885945
 31
0.0
  0
LINE
  5
12C
330
1F
100
AcDbEntity
  8
0
  6
Continuous
 62
     7
370
    30
100
AcDbLine
 10
3.8365993471
 20
6.8230885945
 30
0.0
 11
3.8610992908
 21
6.8372338444
 31
0.0
  0
LINE
  5
12D
330
1F
100
AcDbEntity
  8
0
  6
Continuous
 62
     7
370
    30
100
AcDbLine
 10
3.8610992908
 20
6.7816780329
 30
0.0
 11
3.8365993471
 21
6.7958232828
 31
0.0
  0
LINE
  5
12E
330
1F
100
AcDbEntity
  8
0
  6
Continuous
 62
     7
370
    30
100
AcDbLine
 10
3.6955993093
 20
6.7958232828
 30
0.0
 11
3.6710993657
 21
6.7816780329
 31
0.0
  0
LINE
  5
12F
330
1F
100
AcDbEntity
  8
0
  6
Continuous
 62
     7
370
    30
100
AcDbLine
 10
3.8610992908
 20
6.1705670392
 30
0.0
 11
3.8365993471
 21
6.1847121424
 31
0.0
  0
LINE
  5
130
330
1F
100
AcDbEntity
  8
0
  6
Continuous
 62
     7
370
    30
100
AcDbLine
 10
3.6955993093
 20
6.1847121424
 30
0.0
 11
3.6710993657
 21
6.1705670392
 31
0.0
  0
LINE
  5
131
330
1F
100
AcDbEntity
  8
0
  6
Continuous
 62
     7
370
    30
100
AcDbLine
 10
3.8610992908
 20
5.7261226001
 30
0.0
 11
3.8365993471
 21
5.7402677033
 31
0.0
  0
LINE
  5
132
330
1F
100
AcDbEntity
  8
0
  6
Continuous
 62
     7
370
    30
100
AcDbLine
 10
3.6955993093
 20
5.7402677033
 30
0.0
 11
3.6710993657
 21
5.7261226001
 31
0.0
  0
LINE
  5
133
330
1F
100
AcDbEntity
  8
0
  6
Continuous
 62
     7
370
    30
100
AcDbLine
 10
3.6710993657
 20
5.7816781183
 30
0.0
 11
3.6955993093
 21
5.767533015
 31
0.0
  0
LINE
  5
134
330
1F
100
AcDbEntity
  8
0
  6
Continuous
 62
     7
370
    30
100
AcDbLine
 10
3.8365993471
 20
5.767533015
 30
0.0
 11
3.8610992908
 21
5.7816781183
 31
0.0
  0
LINE
  5
135
330
1F
100
AcDbEntity
  8
0
  6
Continuous
 62
     7
370
    30
100
AcDbLine
 10
3.6710993657
 20
5.8372337832
 30
0.0
 11
3.6955993093
 21
5.8230886799
 31
0.0
  0
LINE
  5
136
330
1F
100
AcDbEntity
  8
0
  6
Continuous
 62
     7
370
    30
100
AcDbLine
 10
3.8365993471
 20
5.8230886799
 30
0.0
 11
3.8610992908
 21
5.8372337832
 31
0.0
  0
LINE
  5
137
330
1F
100
AcDbEntity
  8
0
  6
Continuous
 62
     7
370
    30
100
AcDbLine
 10
3.6710993657
 20
5.8927893014
 30
0.0
 11
3.6955993093
 21
5.8786441981
 31
0.0
  0
LINE
  5
138
330
1F
100
AcDbEntity
  8
0
  6
Continuous
 62
     7
370
    30
100
AcDbLine
 10
3.8365993471
 20
5.8786441981
 30
0.0
 11
3.8610992908
 21
5.8927893014
 31
0.0
  0
LINE
  5
139
330
1F
100
AcDbEntity
  8
0
  6
Continuous
 62
     7
370
    30
100
AcDbLine
 10
3.6710993657
 20
4.7261226122
 30
0.0
 11
3.6955993093
 21
4.7119775089
 31
0.0
  0
LINE
  5
13A
330
1F
100
AcDbEntity
  8
0
  6
Continuous
 62
     7
370
    30
100
AcDbLine
 10
3.8365993471
 20
4.7119775089
 30
0.0
 11
3.8609703723
 21
4.7260481064
 31
0.0
  0
LINE
  5
13B
330
1F
100
AcDbEntity
  8
0
  6
Continuous
 62
     7
370
    30
100
AcDbLine
 10
3.6710993657
 20
6.6705669965
 30
0.0
 11
3.6955993093
 21
6.6564220399
 31
0.0
  0
LINE
  5
13C
330
1F
100
AcDbEntity
  8
0
  6
Continuous
 62
     7
370
    30
100
AcDbLine
 10
3.8365993471
 20
6.6564220399
 30
0.0
 11
3.8610992908
 21
6.6705669965
 31
0.0
  0
LINE
  5
13D
330
1F
100
AcDbEntity
  8
0
  6
Continuous
 62
     7
370
    30
100
AcDbLine
 10
3.8610992908
 20
6.1150115209
 30
0.0
 11
3.8365993471
 21
6.1291566242
 31
0.0
  0
LINE
  5
13E
330
1F
100
AcDbEntity
  8
0
  6
Continuous
 62
     7
370
    30
100
AcDbLine
 10
3.6955993093
 20
6.1291566242
 30
0.0
 11
3.6710993657
 21
6.1150115209
 31
0.0
  0
LINE
  5
13F
330
1F
100
AcDbEntity
  8
0
  6
Continuous
 62
     7
370
    30
100
AcDbLine
 10
3.6710993657
 20
6.1705670392
 30
0.0
 11
3.6955993093
 21
6.1564219359
 31
0.0
  0
LINE
  5
140
330
1F
100
AcDbEntity
  8
0
  6
Continuous
 62
     7
370
    30
100
AcDbLine
 10
3.8365993471
 20
6.1564219359
 30
0.0
 11
3.8610992908
 21
6.1705670392
 31
0.0
  0
LINE
  5
141
330
1F
100
AcDbEntity
  8
0
  6
Continuous
 62
     7
370
    30
100
AcDbLine
 10
3.6710993657
 20
6.2261225574
 30
0.0
 11
3.6955993093
 21
6.2119776008
 31
0.0
  0
LINE
  5
142
330
1F
100
AcDbEntity
  8
0
  6
Continuous
 62
     7
370
    30
100
AcDbLine
 10
3.8365993471
 20
6.2119776008
 30
0.0
 11
3.8610992908
 21
6.2261225574
 31
0.0
  0
LINE
  5
143
330
1F
100
AcDbEntity
  8
0
  6
Continuous
 62
     7
370
    30
100
AcDbLine
 10
3.6710993657
 20
6.3372335938
 30
0.0
 11
3.6955993093
 21
6.3230886372
 31
0.0
  0
LINE
  5
144
330
1F
100
AcDbEntity
  8
0
  6
Continuous
 62
     7
370
    30
100
AcDbLine
 10
3.8365993471
 20
6.3230886372
 30
0.0
 11
3.8610992908
 21
6.3372335938
 31
0.0
  0
LINE
  5
145
330
1F
100
AcDbEntity
  8
0
  6
Continuous
 62
     7
370
    30
100
AcDbLine
 10
3.8610992908
 20
5.7816781183
 30
0.0
 11
3.8365993471
 21
5.7958232216
 31
0.0
  0
LINE
  5
146
330
1F
100
AcDbEntity
  8
0
  6
Continuous
 62
     7
370
    30
100
AcDbLine
 10
3.6955993093
 20
5.7958232216
 30
0.0
 11
3.6710993657
 21
5.7816781183
 31
0.0
  0
LINE
  5
147
330
1F
100
AcDbEntity
  8
0
  6
Continuous
 62
     7
370
    30
100
AcDbLine
 10
3.8610992908
 20
5.8372337832
 30
0.0
 11
3.8365993471
 21
5.8513787398
 31
0.0
  0
LINE
  5
148
330
1F
100
AcDbEntity
  8
0
  6
Continuous
 62
     7
370
    30
100
AcDbLine
 10
3.6955993093
 20
5.8513787398
 30
0.0
 11
3.6710993657
 21
5.8372337832
 31
0.0
  0
LINE
  5
149
330
1F
100
AcDbEntity
  8
0
  6
Continuous
 62
     7
370
    30
100
AcDbLine
 10
3.8610992908
 20
5.8927893014
 30
0.0
 11
3.8365993471
 21
5.9069344047
 31
0.0
  0
LINE
  5
14A
330
1F
100
AcDbEntity
  8
0
  6
Continuous
 62
     7
370
    30
100
AcDbLine
 10
3.6955993093
 20
5.9069344047
 30
0.0
 11
3.6710993657
 21
5.8927893014
 31
0.0
  0
LINE
  5
14B
330
1F
100
AcDbEntity
  8
0
  6
Continuous
 62
     7
370
    30
100
AcDbLine
 10
3.6710993657
 20
6.7261225147
 30
0.0
 11
3.6955993093
 21
6.7119775581
 31
0.0
  0
LINE
  5
14C
330
1F
100
AcDbEntity
  8
0
  6
Continuous
 62
     7
370
    30
100
AcDbLine
 10
3.8365993471
 20
6.7119775581
 30
0.0
 11
3.8610992908
 21
6.7261225147
 31
0.0
  0
LINE
  5
14D
330
1F
100
AcDbEntity
  8
0
  6
Continuous
 62
     7
370
    30
100
AcDbLine
 10
3.8610992908
 20
6.7261225147
 30
0.0
 11
3.8365993471
 21
6.7402677646
 31
0.0
  0
LINE
  5
14E
330
1F
100
AcDbEntity
  8
0
  6
Continuous
 62
     7
370
    30
100
AcDbLine
 10
3.6955993093
 20
6.7402677646
 30
0.0
 11
3.6710993657
 21
6.7261225147
 31
0.0
  0
LINE
  5
14F
330
1F
100
AcDbEntity
  8
0
  6
Continuous
 62
     7
370
    30
100
AcDbLine
 10
3.6710993657
 20
6.7816780329
 30
0.0
 11
3.6955993093
 21
6.7675330763
 31
0.0
  0
LINE
  5
150
330
1F
100
AcDbEntity
  8
0
  6
Continuous
 62
     7
370
    30
100
AcDbLine
 10
3.8365993471
 20
6.7675330763
 30
0.0
 11
3.8610992908
 21
6.7816780329
 31
0.0
  0
LINE
  5
151
330
1F
100
AcDbEntity
  8
0
  6
Continuous
 62
     7
370
    30
100
AcDbLine
 10
3.6955993093
 20
4.9069343434
 30
0.0
 11
3.6741785968
 21
4.894567113
 31
0.0
  0
LINE
  5
152
330
1F
100
AcDbEntity
  8
0
  6
Continuous
 62
     7
370
    30
100
AcDbLine
 10
3.8480679613
 20
4.9558685248
 30
0.0
 11
3.8365993471
 21
4.962489935
 31
0.0
  0
LINE
  5
153
330
1F
100
AcDbEntity
  8
0
  6
Continuous
 62
     7
370
    30
100
AcDbLine
 10
3.6955993093
 20
4.962489935
 30
0.0
 11
3.6710993657
 21
4.9483448317
 31
0.0
  0
LINE
  5
154
330
1F
100
AcDbEntity
  8
0
  6
Continuous
 62
     7
370
    30
100
AcDbLine
 10
3.6710993657
 20
5.0594559415
 30
0.0
 11
3.6955993093
 21
5.0453108382
 31
0.0
  0
LINE
  5
155
330
1F
100
AcDbEntity
  8
0
  6
Continuous
 62
     7
370
    30
100
AcDbLine
 10
3.8365993471
 20
5.0453108382
 30
0.0
 11
3.8610992908
 21
5.0594559415
 31
0.0
  0
LINE
  5
156
330
1F
100
AcDbEntity
  8
0
  6
Continuous
 62
     7
370
    30
100
AcDbLine
 10
3.8610992908
 20
6.3372335938
 30
0.0
 11
3.8365993471
 21
6.3513788437
 31
0.0
  0
LINE
  5
157
330
1F
100
AcDbEntity
  8
0
  6
Continuous
 62
     7
370
    30
100
AcDbLine
 10
3.6955993093
 20
6.3513788437
 30
0.0
 11
3.6710993657
 21
6.3372335938
 31
0.0
  0
LINE
  5
158
330
1F
100
AcDbEntity
  8
0
  6
Continuous
 62
     7
370
    30
100
AcDbLine
 10
3.6710993657
 20
6.55945596
 30
0.0
 11
3.6738557872
 21
6.5578643517
 31
0.0
  0
LINE
  5
159
330
1F
100
AcDbEntity
  8
0
  6
Continuous
 62
     7
370
    30
100
AcDbLine
 10
3.8583428693
 20
6.5578643517
 30
0.0
 11
3.8610992908
 21
6.55945596
 31
0.0
  0
LINE
  5
15A
330
1F
100
AcDbEntity
  8
0
  6
Continuous
 62
     7
370
    30
100
AcDbLine
 10
3.8610992908
 20
6.55945596
 30
0.0
 11
3.8365993471
 21
6.5736009166
 31
0.0
  0
LINE
  5
15B
330
1F
100
AcDbEntity
  8
0
  6
Continuous
 62
     7
370
    30
100
AcDbLine
 10
3.6955993093
 20
6.5736009166
 30
0.0
 11
3.6710993657
 21
6.55945596
 31
0.0
  0
LINE
  5
15C
330
1F
100
AcDbEntity
  8
0
  6
Continuous
 62
     7
370
    30
100
AcDbLine
 10
3.8610992908
 20
6.0594560027
 30
0.0
 11
3.8365993471
 21
6.0736009593
 31
0.0
  0
LINE
  5
15D
330
1F
100
AcDbEntity
  8
0
  6
Continuous
 62
     7
370
    30
100
AcDbLine
 10
3.6955993093
 20
6.0736009593
 30
0.0
 11
3.6710993657
 21
6.0594560027
 31
0.0
  0
LINE
  5
15E
330
1F
100
AcDbEntity
  8
0
  6
Continuous
 62
     7
370
    30
100
AcDbLine
 10
3.6710993657
 20
6.1150115209
 30
0.0
 11
3.6955993093
 21
6.1008664177
 31
0.0
  0
LINE
  5
15F
330
1F
100
AcDbEntity
  8
0
  6
Continuous
 62
     7
370
    30
100
AcDbLine
 10
3.8365993471
 20
6.1008664177
 30
0.0
 11
3.8610992908
 21
6.1150115209
 31
0.0
  0
LINE
  5
160
330
1F
100
AcDbEntity
  8
0
  6
Continuous
 62
     7
370
    30
100
AcDbLine
 10
3.6710993657
 20
6.4483449236
 30
0.0
 11
3.6955993093
 21
6.4341996737
 31
0.0
  0
LINE
  5
161
330
1F
100
AcDbEntity
  8
0
  6
Continuous
 62
     7
370
    30
100
AcDbLine
 10
3.8365993471
 20
6.4341996737
 30
0.0
 11
3.8610992908
 21
6.4483449236
 31
0.0
  0
LINE
  5
162
330
1F
100
AcDbEntity
  8
0
  6
Continuous
 62
     7
370
    30
100
AcDbLine
 10
3.8610992908
 20
6.2261225574
 30
0.0
 11
3.8365993471
 21
6.2402676606
 31
0.0
  0
LINE
  5
163
330
1F
100
AcDbEntity
  8
0
  6
Continuous
 62
     7
370
    30
100
AcDbLine
 10
3.6955993093
 20
6.2402676606
 30
0.0
 11
3.6710993657
 21
6.2261225574
 31
0.0
  0
LINE
  5
164
330
1F
100
AcDbEntity
  8
0
  6
Continuous
 62
     7
370
    30
100
AcDbLine
 10
3.6936159589
 20
5.1020115165
 30
0.0
 11
3.6955993093
 21
5.1008663564
 31
0.0
  0
LINE
  5
165
330
1F
100
AcDbEntity
  8
0
  6
Continuous
 62
     7
370
    30
100
AcDbLine
 10
3.8365993471
 20
5.1008663564
 30
0.0
 11
3.8385826976
 21
5.1020115165
 31
0.0
  0
LINE
  5
166
330
1F
100
AcDbEntity
  8
0
  6
Continuous
 62
     7
370
    30
100
AcDbLine
 10
3.8610992908
 20
6.2816780756
 30
0.0
 11
3.8365993471
 21
6.2958233255
 31
0.0
  0
LINE
  5
167
330
1F
100
AcDbEntity
  8
0
  6
Continuous
 62
     7
370
    30
100
AcDbLine
 10
3.6955993093
 20
6.2958233255
 30
0.0
 11
3.6710993657
 21
6.2816780756
 31
0.0
  0
LINE
  5
168
330
1F
100
AcDbEntity
  8
0
  6
Continuous
 62
     7
370
    30
100
AcDbLine
 10
3.8610992908
 20
6.3927894054
 30
0.0
 11
3.8365993471
 21
6.406934362
 31
0.0
  0
LINE
  5
169
330
1F
100
AcDbEntity
  8
0
  6
Continuous
 62
     7
370
    30
100
AcDbLine
 10
3.6955993093
 20
6.406934362
 30
0.0
 11
3.6710993657
 21
6.3927894054
 31
0.0
  0
LINE
  5
16A
330
1F
100
AcDbEntity
  8
0
  6
Continuous
 62
     7
370
    30
100
AcDbLine
 10
3.6710993657
 20
6.6150114782
 30
0.0
 11
3.6955993093
 21
6.6008665216
 31
0.0
  0
LINE
  5
16B
330
1F
100
AcDbEntity
  8
0
  6
Continuous
 62
     7
370
    30
100
AcDbLine
 10
3.8365993471
 20
6.6008665216
 30
0.0
 11
3.8610992908
 21
6.6150114782
 31
0.0
  0
LINE
  5
16C
330
1F
100
AcDbEntity
  8
0
  6
Continuous
 62
     7
370
    30
100
AcDbLine
 10
3.6817460693
 20
4.8866424378
 30
0.0
 11
3.6955993093
 21
4.8786442102
 31
0.0
  0
LINE
  5
16D
330
1F
100
AcDbEntity
  8
0
  6
Continuous
 62
     7
370
    30
100
AcDbLine
 10
3.8610992908
 20
6.4483449236
 30
0.0
 11
3.8365993471
 21
6.4624898802
 31
0.0
  0
LINE
  5
16E
330
1F
100
AcDbEntity
  8
0
  6
Continuous
 62
     7
370
    30
100
AcDbLine
 10
3.6955993093
 20
6.4624898802
 30
0.0
 11
3.6710993657
 21
6.4483449236
 31
0.0
  0
LINE
  5
16F
330
1F
100
AcDbEntity
  8
0
  6
Continuous
 62
     7
370
    30
100
AcDbLine
 10
3.8610992908
 20
5.0039004233
 30
0.0
 11
3.8365993471
 21
5.0180454532
 31
0.0
  0
LINE
  5
170
330
1F
100
AcDbEntity
  8
0
  6
Continuous
 62
     7
370
    30
100
AcDbLine
 10
3.6955993093
 20
5.0180454532
 30
0.0
 11
3.6710993657
 21
5.0039004233
 31
0.0
  0
LINE
  5
171
330
1F
100
AcDbEntity
  8
0
  6
Continuous
 62
     7
370
    30
100
AcDbLine
 10
3.6710993657
 20
5.0039004233
 30
0.0
 11
3.6955993093
 21
4.98975532
 31
0.0
  0
LINE
  5
172
330
1F
100
AcDbEntity
  8
0
  6
Continuous
 62
     7
370
    30
100
AcDbLine
 10
3.8365993471
 20
4.98975532
 30
0.0
 11
3.8610992908
 21
5.0039004233
 31
0.0
  0
LINE
  5
173
330
1F
100
AcDbEntity
  8
0
  6
Continuous
 62
     7
370
    30
100
AcDbLine
 10
3.8433560557
 20
4.8474778303
 30
0.0
 11
3.8365993471
 21
4.8513788252
 31
0.0
  0
LINE
  5
174
330
1F
100
AcDbEntity
  8
0
  6
Continuous
 62
     7
370
    30
100
AcDbLine
 10
3.6955993093
 20
4.8513788252
 30
0.0
 11
3.6710993657
 21
4.8372337219
 31
0.0
  0
LINE
  5
175
330
1F
100
AcDbEntity
  8
0
  6
Continuous
 62
     7
370
    30
100
AcDbLine
 10
3.6710993657
 20
6.3927894054
 30
0.0
 11
3.6955993093
 21
6.3786441554
 31
0.0
  0
LINE
  5
176
330
1F
100
AcDbEntity
  8
0
  6
Continuous
 62
     7
370
    30
100
AcDbLine
 10
3.8365993471
 20
6.3786441554
 30
0.0
 11
3.8610992908
 21
6.3927894054
 31
0.0
  0
LINE
  5
177
330
1F
100
AcDbEntity
  8
0
  6
Continuous
 62
     7
370
    30
100
AcDbLine
 10
3.8610992908
 20
6.6150114782
 30
0.0
 11
3.8365993471
 21
6.6291564348
 31
0.0
  0
LINE
  5
178
330
1F
100
AcDbEntity
  8
0
  6
Continuous
 62
     7
370
    30
100
AcDbLine
 10
3.6955993093
 20
6.6291564348
 30
0.0
 11
3.6710993657
 21
6.6150114782
 31
0.0
  0
LINE
  5
179
330
1F
100
AcDbEntity
  8
0
  6
Continuous
 62
     7
370
    30
100
AcDbLine
 10
3.8365993471
 20
6.5736009166
 30
0.0
 11
3.8365993471
 21
6.6008665216
 31
0.0
  0
LINE
  5
17A
330
1F
100
AcDbEntity
  8
0
  6
Continuous
 62
     7
370
    30
100
AcDbLine
 10
3.6955993093
 20
6.6008665216
 30
0.0
 11
3.6955993093
 21
6.5736009166
 31
0.0
  0
LINE
  5
17B
330
1F
100
AcDbEntity
  8
0
  6
Continuous
 62
     7
370
    30
100
AcDbLine
 10
3.8365993471
 20
6.406934362
 30
0.0
 11
3.8365993471
 21
6.4341996737
 31
0.0
  0
LINE
  5
17C
330
1F
100
AcDbEntity
  8
0
  6
Continuous
 62
     7
370
    30
100
AcDbLine
 10
3.6955993093
 20
6.4341996737
 30
0.0
 11
3.6955993093
 21
6.406934362
 31
0.0
  0
LINE
  5
17D
330
1F
100
AcDbEntity
  8
0
  6
Continuous
 62
     7
370
    30
100
AcDbLine
 10
3.8365993471
 20
5.8513787398
 30
0.0
 11
3.8365993471
 21
5.8786441981
 31
0.0
  0
LINE
  5
17E
330
1F
100
AcDbEntity
  8
0
  6
Continuous
 62
     7
370
    30
100
AcDbLine
 10
3.6955993093
 20
5.8786441981
 30
0.0
 11
3.6955993093
 21
5.8513787398
 31
0.0
  0
LINE
  5
17F
330
1F
100
AcDbEntity
  8
0
  6
Continuous
 62
     7
370
    30
100
AcDbLine
 10
3.8365993471
 20
6.4624898802
 30
0.0
 11
3.8365993471
 21
6.4770613385
 31
0.0
  0
LINE
  5
180
330
1F
100
AcDbEntity
  8
0
  6
Continuous
 62
     7
370
    30
100
AcDbLine
 10
3.6955993093
 20
6.4770613385
 30
0.0
 11
3.6955993093
 21
6.4624898802
 31
0.0
  0
LINE
  5
181
330
1F
100
AcDbEntity
  8
0
  6
Continuous
 62
     7
370
    30
100
AcDbLine
 10
3.8365993471
 20
6.6291564348
 30
0.0
 11
3.8365993471
 21
6.6564220399
 31
0.0
  0
LINE
  5
182
330
1F
100
AcDbEntity
  8
0
  6
Continuous
 62
     7
370
    30
100
AcDbLine
 10
3.6955993093
 20
6.6564220399
 30
0.0
 11
3.6955993093
 21
6.6291564348
 31
0.0
  0
LINE
  5
183
330
1F
100
AcDbEntity
  8
0
  6
Continuous
 62
     7
370
    30
100
AcDbLine
 10
3.8365993471
 20
5.9069344047
 30
0.0
 11
3.8365993471
 21
5.9341997164
 31
0.0
  0
LINE
  5
184
330
1F
100
AcDbEntity
  8
0
  6
Continuous
 62
     7
370
    30
100
AcDbLine
 10
3.6955993093
 20
5.9341997164
 30
0.0
 11
3.6955993093
 21
5.9069344047
 31
0.0
  0
LINE
  5
185
330
1F
100
AcDbEntity
  8
0
  6
Continuous
 62
     7
370
    30
100
AcDbLine
 10
3.8365993471
 20
6.2402676606
 30
0.0
 11
3.8365993471
 21
6.267533119
 31
0.0
  0
LINE
  5
186
330
1F
100
AcDbEntity
  8
0
  6
Continuous
 62
     7
370
    30
100
AcDbLine
 10
3.6955993093
 20
6.267533119
 30
0.0
 11
3.6955993093
 21
6.2402676606
 31
0.0
  0
LINE
  5
187
330
1F
100
AcDbEntity
  8
0
  6
Continuous
 62
     7
370
    30
100
AcDbLine
 10
3.8365993471
 20
5.7402677033
 30
0.0
 11
3.8365993471
 21
5.767533015
 31
0.0
  0
LINE
  5
188
330
1F
100
AcDbEntity
  8
0
  6
Continuous
 62
     7
370
    30
100
AcDbLine
 10
3.6955993093
 20
5.767533015
 30
0.0
 11
3.6955993093
 21
5.7402677033
 31
0.0
  0
LINE
  5
189
330
1F
100
AcDbEntity
  8
0
  6
Continuous
 62
     7
370
    30
100
AcDbLine
 10
3.8365993471
 20
6.6847122464
 30
0.0
 11
3.8365993471
 21
6.7119775581
 31
0.0
  0
LINE
  5
18A
330
1F
100
AcDbEntity
  8
0
  6
Continuous
 62
     7
370
    30
100
AcDbLine
 10
3.6955993093
 20
6.7119775581
 30
0.0
 11
3.6955993093
 21
6.6847122464
 31
0.0
  0
LINE
  5
18B
330
1F
100
AcDbEntity
  8
0
  6
Continuous
 62
     7
370
    30
100
AcDbLine
 10
3.8365993471
 20
5.9624899229
 30
0.0
 11
3.8365993471
 21
5.9897552346
 31
0.0
  0
LINE
  5
18C
330
1F
100
AcDbEntity
  8
0
  6
Continuous
 62
     7
370
    30
100
AcDbLine
 10
3.6955993093
 20
5.9897552346
 30
0.0
 11
3.6955993093
 21
5.9624899229
 31
0.0
  0
LINE
  5
18D
330
1F
100
AcDbEntity
  8
0
  6
Continuous
 62
     7
370
    30
100
AcDbLine
 10
3.8365993471
 20
6.851378801
 30
0.0
 11
3.8365993471
 21
6.8786441127
 31
0.0
  0
LINE
  5
18E
330
1F
100
AcDbEntity
  8
0
  6
Continuous
 62
     7
370
    30
100
AcDbLine
 10
3.6955993093
 20
6.8786441127
 30
0.0
 11
3.6955993093
 21
6.851378801
 31
0.0
  0
LINE
  5
18F
330
1F
100
AcDbEntity
  8
0
  6
Continuous
 62
     7
370
    30
100
AcDbLine
 10
3.8365993471
 20
6.0180454411
 30
0.0
 11
3.8365993471
 21
6.0453108995
 31
0.0
  0
LINE
  5
190
330
1F
100
AcDbEntity
  8
0
  6
Continuous
 62
     7
370
    30
100
AcDbLine
 10
3.6955993093
 20
6.0453108995
 30
0.0
 11
3.6955993093
 21
6.0180454411
 31
0.0
  0
LINE
  5
191
330
1F
100
AcDbEntity
  8
0
  6
Continuous
 62
     7
370
    30
100
AcDbLine
 10
3.8365993471
 20
5.6960115479
 30
0.0
 11
3.8365993471
 21
5.7119774968
 31
0.0
  0
LINE
  5
192
330
1F
100
AcDbEntity
  8
0
  6
Continuous
 62
     7
370
    30
100
AcDbLine
 10
3.6955993093
 20
5.7119774968
 30
0.0
 11
3.6955993093
 21
5.6960115479
 31
0.0
  0
LINE
  5
193
330
1F
100
AcDbEntity
  8
0
  6
Continuous
 62
     7
370
    30
100
AcDbLine
 10
3.8365993471
 20
6.3513788437
 30
0.0
 11
3.8365993471
 21
6.3786441554
 31
0.0
  0
LINE
  5
194
330
1F
100
AcDbEntity
  8
0
  6
Continuous
 62
     7
370
    30
100
AcDbLine
 10
3.6955993093
 20
6.3786441554
 30
0.0
 11
3.6955993093
 21
6.3513788437
 31
0.0
  0
LINE
  5
195
330
1F
100
AcDbEntity
  8
0
  6
Continuous
 62
     7
370
    30
100
AcDbLine
 10
3.8365993471
 20
6.2958233255
 30
0.0
 11
3.8365993471
 21
6.3230886372
 31
0.0
  0
LINE
  5
196
330
1F
100
AcDbEntity
  8
0
  6
Continuous
 62
     7
370
    30
100
AcDbLine
 10
3.6955993093
 20
6.3230886372
 30
0.0
 11
3.6955993093
 21
6.2958233255
 31
0.0
  0
LINE
  5
197
330
1F
100
AcDbEntity
  8
0
  6
Continuous
 62
     7
370
    30
100
AcDbLine
 10
3.8365993471
 20
6.1291566242
 30
0.0
 11
3.8365993471
 21
6.1564219359
 31
0.0
  0
LINE
  5
198
330
1F
100
AcDbEntity
  8
0
  6
Continuous
 62
     7
370
    30
100
AcDbLine
 10
3.6955993093
 20
6.1564219359
 30
0.0
 11
3.6955993093
 21
6.1291566242
 31
0.0
  0
LINE
  5
199
330
1F
100
AcDbEntity
  8
0
  6
Continuous
 62
     7
370
    30
100
AcDbLine
 10
3.8365993471
 20
5.7958232216
 30
0.0
 11
3.8365993471
 21
5.8230886799
 31
0.0
  0
LINE
  5
19A
330
1F
100
AcDbEntity
  8
0
  6
Continuous
 62
     7
370
    30
100
AcDbLine
 10
3.6955993093
 20
5.8230886799
 30
0.0
 11
3.6955993093
 21
5.7958232216
 31
0.0
  0
LINE
  5
19B
330
1F
100
AcDbEntity
  8
0
  6
Continuous
 62
     7
370
    30
100
AcDbLine
 10
3.8365993471
 20
4.8513788252
 30
0.0
 11
3.8365993471
 21
4.8640720919
 31
0.0
  0
LINE
  5
19C
330
1F
100
AcDbEntity
  8
0
  6
Continuous
 62
     7
370
    30
100
AcDbLine
 10
3.6955993093
 20
4.8786442102
 30
0.0
 11
3.6955993093
 21
4.8513788252
 31
0.0
  0
LINE
  5
19D
330
1F
100
AcDbEntity
  8
0
  6
Continuous
 62
     7
370
    30
100
AcDbLine
 10
3.8365993471
 20
4.8083534089
 30
0.0
 11
3.8365993471
 21
4.8230886187
 31
0.0
  0
LINE
  5
19E
330
1F
100
AcDbEntity
  8
0
  6
Continuous
 62
     7
370
    30
100
AcDbLine
 10
3.6955993093
 20
4.8230886187
 30
0.0
 11
3.6955993093
 21
4.7958232337
 31
0.0
  0
LINE
  5
19F
330
1F
100
AcDbEntity
  8
0
  6
Continuous
 62
     7
370
    30
100
AcDbLine
 10
3.8365993471
 20
6.7402677646
 30
0.0
 11
3.8365993471
 21
6.7675330763
 31
0.0
  0
LINE
  5
1A0
330
1F
100
AcDbEntity
  8
0
  6
Continuous
 62
     7
370
    30
100
AcDbLine
 10
3.6955993093
 20
6.7675330763
 30
0.0
 11
3.6955993093
 21
6.7402677646
 31
0.0
  0
LINE
  5
1A1
330
1F
100
AcDbEntity
  8
0
  6
Continuous
 62
     7
370
    30
100
AcDbLine
 10
3.8365993471
 20
6.9069343192
 30
0.0
 11
3.8365993471
 21
6.944809375
 31
0.0
  0
LINE
  5
1A2
330
1F
100
AcDbEntity
  8
0
  6
Continuous
 62
     7
370
    30
100
AcDbLine
 10
3.6955993093
 20
6.944809375
 30
0.0
 11
3.6955993093
 21
6.9069343192
 31
0.0
  0
LINE
  5
1A3
330
1F
100
AcDbEntity
  8
0
  6
Continuous
 62
     7
370
    30
100
AcDbLine
 10
3.8365993471
 20
6.1847121424
 30
0.0
 11
3.8365993471
 21
6.2119776008
 31
0.0
  0
LINE
  5
1A4
330
1F
100
AcDbEntity
  8
0
  6
Continuous
 62
     7
370
    30
100
AcDbLine
 10
3.6955993093
 20
6.2119776008
 30
0.0
 11
3.6955993093
 21
6.1847121424
 31
0.0
  0
LINE
  5
1A5
330
1F
100
AcDbEntity
  8
0
  6
Continuous
 62
     7
370
    30
100
AcDbLine
 10
3.8365993471
 20
6.0736009593
 30
0.0
 11
3.8365993471
 21
6.1008664177
 31
0.0
  0
LINE
  5
1A6
330
1F
100
AcDbEntity
  8
0
  6
Continuous
 62
     7
370
    30
100
AcDbLine
 10
3.6955993093
 20
6.1008664177
 30
0.0
 11
3.6955993093
 21
6.0736009593
 31
0.0
  0
LINE
  5
1A7
330
1F
100
AcDbEntity
  8
0
  6
Continuous
 62
     7
370
    30
100
AcDbLine
 10
3.8365993471
 20
6.7958232828
 30
0.0
 11
3.8365993471
 21
6.8230885945
 31
0.0
  0
LINE
  5
1A8
330
1F
100
AcDbEntity
  8
0
  6
Continuous
 62
     7
370
    30
100
AcDbLine
 10
3.6955993093
 20
6.8230885945
 30
0.0
 11
3.6955993093
 21
6.7958232828
 31
0.0
  0
LINE
  5
1A9
330
1F
100
AcDbEntity
  8
0
  6
Continuous
 62
     7
370
    30
100
AcDbLine
 10
3.8365993471
 20
4.9140236882
 30
0.0
 11
3.8365993471
 21
4.9341997284
 31
0.0
  0
LINE
  5
1AA
330
1F
100
AcDbEntity
  8
0
  6
Continuous
 62
     7
370
    30
100
AcDbLine
 10
3.6955993093
 20
4.9341997284
 30
0.0
 11
3.6955993093
 21
4.9069343434
 31
0.0
  0
LINE
  5
1AB
330
1F
100
AcDbEntity
  8
0
  6
Continuous
 62
     7
370
    30
100
AcDbLine
 10
3.8365993471
 20
4.962489935
 30
0.0
 11
3.8365993471
 21
4.9697423712
 31
0.0
  0
LINE
  5
1AC
330
1F
100
AcDbEntity
  8
0
  6
Continuous
 62
     7
370
    30
100
AcDbLine
 10
3.8365993471
 20
4.984470541
 30
0.0
 11
3.8365993471
 21
4.98975532
 31
0.0
  0
LINE
  5
1AD
330
1F
100
AcDbEntity
  8
0
  6
Continuous
 62
     7
370
    30
100
AcDbLine
 10
3.6955993093
 20
4.98975532
 30
0.0
 11
3.6955993093
 21
4.962489935
 31
0.0
  0
LINE
  5
1AE
330
1F
100
AcDbEntity
  8
0
  6
Continuous
 62
     7
370
    30
100
AcDbLine
 10
3.8365993471
 20
5.0180454532
 30
0.0
 11
3.8365993471
 21
5.0453108382
 31
0.0
  0
LINE
  5
1AF
330
1F
100
AcDbEntity
  8
0
  6
Continuous
 62
     7
370
    30
100
AcDbLine
 10
3.6955993093
 20
5.0453108382
 30
0.0
 11
3.6955993093
 21
5.0180454532
 31
0.0
  0
LINE
  5
1B0
330
1F
100
AcDbEntity
  8
0
  6
Continuous
 62
     7
370
    30
100
AcDbLine
 10
3.8365993471
 20
6.944809375
 30
0.0
 11
3.7660994016
 21
7.1150114355
 31
0.0
  0
LINE
  5
1B1
330
1F
100
AcDbEntity
  8
0
  6
Continuous
 62
     7
370
    30
100
AcDbLine
 10
3.7660994016
 20
7.1150114355
 30
0.0
 11
3.6955993093
 21
6.944809375
 31
0.0
  0
LINE
  5
1B2
330
1F
100
AcDbEntity
  8
0
  6
Continuous
 62
     7
370
    30
100
AcDbLine
 10
3.8365993471
 20
4.6847121239
 30
0.0
 11
3.8365993471
 21
4.7119775089
 31
0.0
  0
LINE
  5
1B3
330
1F
100
AcDbEntity
  8
0
  6
Continuous
 62
     7
370
    30
100
AcDbLine
 10
3.6955993093
 20
4.7119775089
 30
0.0
 11
3.6955993093
 21
4.6847121239
 31
0.0
  0
LINE
  5
1B4
330
1F
100
AcDbEntity
  8
0
  6
Continuous
 62
     7
370
    30
100
AcDbLine
 10
3.8365993471
 20
4.7402677154
 30
0.0
 11
3.8365993471
 21
4.7584018126
 31
0.0
  0
LINE
  5
1B5
330
1F
100
AcDbEntity
  8
0
  6
Continuous
 62
     7
370
    30
100
AcDbLine
 10
3.6955993093
 20
4.7675331005
 30
0.0
 11
3.6955993093
 21
4.7402677154
 31
0.0
  0
LINE
  5
1B6
330
1F
100
AcDbEntity
  8
0
  6
Continuous
 62
     7
370
    30
100
AcDbLine
 10
3.8365993471
 20
5.0736010447
 30
0.0
 11
3.8365993471
 21
5.1008663564
 31
0.0
  0
LINE
  5
1B7
330
1F
100
AcDbEntity
  8
0
  6
Continuous
 62
     7
370
    30
100
AcDbLine
 10
3.6955993093
 20
5.1008663564
 30
0.0
 11
3.6955993093
 21
5.0736010447
 31
0.0
  0
LINE
  5
1B8
330
1F
100
AcDbEntity
  8
0
  6
Continuous
 62
     7
370
    30
100
AcDbLine
 10
7.3915077739
 20
3.8400114999
 30
0.0
 11
7.1410993333
 21
3.8400114999
 31
0.0
  0
ARC
  5
1B9
330
1F
100
AcDbEntity
  8
0
  6
Continuous
 62
     7
370
    30
100
AcDbCircle
 10
7.3915077732
 20
3.8650114995
 30
0.0
 40
0.0250000000000005
100
AcDbArc
 50
270.0
 51
21.86614513
  0
ARC
  5
1BA
330
1F
100
AcDbEntity
  8
0
  6
Continuous
 62
     7
370
    30
100
AcDbCircle
 10
7.516099356
 20
3.9150114995
 30
0.0
 40
0.1092499999999999
100
AcDbArc
 50
103.2283724921
 51
201.86614513
  0
LINE
  5
1BB
330
1F
100
AcDbEntity
  8
0
  6
Continuous
 62
     7
370
    30
100
AcDbLine
 10
7.4910993034
 20
4.8625236765
 30
0.0
 11
7.4910993034
 21
4.0213626236
 31
0.0
  0
ARC
  5
1BC
330
1F
100
AcDbEntity
  8
0
  6
Continuous
 62
     7
370
    30
100
AcDbCircle
 10
7.416099356
 20
4.862523665
 30
0.0
 40
0.0750000000000002
100
AcDbArc
 50
0.0
 51
83.3002348222
  0
ARC
  5
1BD
330
1F
100
AcDbEntity
  8
0
  6
Continuous
 62
     7
370
    30
100
AcDbCircle
 10
7.430099356
 20
4.9817042003
 30
0.0
 40
0.0449999999999994
100
AcDbArc
 50
180.0
 51
263.3002348222
  0
LINE
  5
1BE
330
1F
100
AcDbEntity
  8
0
  6
Continuous
 62
     7
370
    30
100
AcDbLine
 10
7.3850993946
 20
5.0570114764
 30
0.0
 11
7.3850993946
 21
4.9817042197
 31
0.0
  0
ARC
  5
1BF
330
1F
100
AcDbEntity
  8
0
  6
Continuous
 62
     7
370
    30
100
AcDbCircle
 10
7.395099356
 20
5.0570114995
 30
0.0
 40
0.0100000000000007
100
AcDbArc
 50
90.0
 51
180.0
  0
LINE
  5
1C0
330
1F
100
AcDbEntity
  8
0
  6
Continuous
 62
     7
370
    30
100
AcDbLine
 10
7.4015354047
 20
5.0670115342
 30
0.0
 11
7.3950993057
 21
5.0670115342
 31
0.0
  0
LINE
  5
1C1
330
1F
100
AcDbEntity
  8
0
  6
Continuous
 62
     7
370
    30
100
AcDbLine
 10
7.4350993903
 20
5.0270114496
 30
0.0
 11
7.4015354047
 21
5.0670115342
 31
0.0
  0
LINE
  5
1C2
330
1F
100
AcDbEntity
  8
0
  6
Continuous
 62
     7
370
    30
100
AcDbLine
 10
7.4262830655
 20
4.9770115272
 30
0.0
 11
7.4350993903
 21
5.0270114496
 31
0.0
  0
LINE
  5
1C3
330
1F
100
AcDbEntity
  8
0
  6
Continuous
 62
     7
370
    30
100
AcDbLine
 10
7.4910993034
 20
4.9770115272
 30
0.0
 11
7.4262830655
 21
4.9770115272
 31
0.0
  0
LINE
  5
1C4
330
1F
100
AcDbEntity
  8
0
  6
Continuous
 62
     7
370
    30
100
AcDbLine
 10
7.4910993034
 20
5.6020114738
 30
0.0
 11
7.4910993034
 21
4.9770115272
 31
0.0
  0
LINE
  5
1C5
330
1F
100
AcDbEntity
  8
0
  6
Continuous
 62
     7
370
    30
100
AcDbLine
 10
7.5410992991
 20
5.6020114738
 30
0.0
 11
7.4910993034
 21
5.6020114738
 31
0.0
  0
LINE
  5
1C6
330
1F
100
AcDbEntity
  8
0
  6
Continuous
 62
     7
370
    30
100
AcDbLine
 10
7.5410992991
 20
4.9770115272
 30
0.0
 11
7.5410992991
 21
5.6020114738
 31
0.0
  0
LINE
  5
1C7
330
1F
100
AcDbEntity
  8
0
  6
Continuous
 62
     7
370
    30
100
AcDbLine
 10
7.6059156837
 20
4.9770115272
 30
0.0
 11
7.5410992991
 21
4.9770115272
 31
0.0
  0
LINE
  5
1C8
330
1F
100
AcDbEntity
  8
0
  6
Continuous
 62
     7
370
    30
100
AcDbLine
 10
7.5970993588
 20
5.0270114496
 30
0.0
 11
7.6059156837
 21
4.9770115272
 31
0.0
  0
LINE
  5
1C9
330
1F
100
AcDbEntity
  8
0
  6
Continuous
 62
     7
370
    30
100
AcDbLine
 10
7.6306633444
 20
5.0670115342
 30
0.0
 11
7.5970993588
 21
5.0270114496
 31
0.0
  0
LINE
  5
1CA
330
1F
100
AcDbEntity
  8
0
  6
Continuous
 62
     7
370
    30
100
AcDbLine
 10
7.6370992968
 20
5.0670115342
 30
0.0
 11
7.6306633444
 21
5.0670115342
 31
0.0
  0
ARC
  5
1CB
330
1F
100
AcDbEntity
  8
0
  6
Continuous
 62
     7
370
    30
100
AcDbCircle
 10
7.637099356
 20
5.0570114995
 30
0.0
 40
0.0099999999999998
100
AcDbArc
 50
0.0
 51
90.0
  0
LINE
  5
1CC
330
1F
100
AcDbEntity
  8
0
  6
Continuous
 62
     7
370
    30
100
AcDbLine
 10
7.6470993546
 20
4.9817042197
 30
0.0
 11
7.6470993546
 21
5.0570114764
 31
0.0
  0
ARC
  5
1CD
330
1F
100
AcDbEntity
  8
0
  6
Continuous
 62
     7
370
    30
100
AcDbCircle
 10
7.602099356
 20
4.9817042003
 30
0.0
 40
0.0449999999999999
100
AcDbArc
 50
276.6997651778
 51
0.0
  0
ARC
  5
1CE
330
1F
100
AcDbEntity
  8
0
  6
Continuous
 62
     7
370
    30
100
AcDbCircle
 10
7.616099356
 20
4.862523665
 30
0.0
 40
0.0750000000000001
100
AcDbArc
 50
96.6997651778
 51
180.0
  0
LINE
  5
1CF
330
1F
100
AcDbEntity
  8
0
  6
Continuous
 62
     7
370
    30
100
AcDbLine
 10
7.5410992991
 20
3.9742614977
 30
0.0
 11
7.5410992991
 21
4.8625236765
 31
0.0
  0
LINE
  5
1D0
330
1F
100
AcDbEntity
  8
0
  6
Continuous
 62
     7
370
    30
100
AcDbLine
 10
7.5160993746
 20
3.9742614977
 30
0.0
 11
7.5410992991
 21
3.9742614977
 31
0.0
  0
ARC
  5
1D1
330
1F
100
AcDbEntity
  8
0
  6
Continuous
 62
     7
370
    30
100
AcDbCircle
 10
7.516099356
 20
3.9150114995
 30
0.0
 40
0.0592499999999996
100
AcDbArc
 50
90.0
 51
346.9332707857
  0
ARC
  5
1D2
330
1F
100
AcDbEntity
  8
0
  6
Continuous
 62
     7
370
    30
100
AcDbCircle
 10
7.5981679058
 20
3.8959637796
 30
0.0
 40
0.0250000000000012
100
AcDbArc
 50
346.9332707857
 51
166.9332707857
  0
ARC
  5
1D3
330
1F
100
AcDbEntity
  8
0
  6
Continuous
 62
     7
370
    30
100
AcDbCircle
 10
7.516099356
 20
3.9150114995
 30
0.0
 40
0.1092499999999998
100
AcDbArc
 50
338.13385487
 51
346.9332707857
  0
ARC
  5
1D4
330
1F
100
AcDbEntity
  8
0
  6
Continuous
 62
     7
370
    30
100
AcDbCircle
 10
7.6406909388
 20
3.8650114995
 30
0.0
 40
0.0249999999999999
100
AcDbArc
 50
158.13385487
 51
270.0
  0
LINE
  5
1D5
330
1F
100
AcDbEntity
  8
0
  6
Continuous
 62
     7
370
    30
100
AcDbLine
 10
7.8910994159
 20
3.8400114999
 30
0.0
 11
7.6406909753
 21
3.8400114999
 31
0.0
  0
LINE
  5
1D6
330
1F
100
AcDbEntity
  8
0
  6
Continuous
 62
     7
370
    30
100
AcDbLine
 10
7.8910994159
 20
3.7900114995
 30
0.0
 11
7.8910994159
 21
3.8400114999
 31
0.0
  0
LINE
  5
1D7
330
1F
100
AcDbEntity
  8
0
  6
Continuous
 62
     7
370
    30
100
AcDbLine
 10
7.1410993333
 20
3.7900114995
 30
0.0
 11
7.8910994159
 21
3.7900114995
 31
0.0
  0
LINE
  5
1D8
330
1F
100
AcDbEntity
  8
0
  6
Continuous
 62
     7
370
    30
100
AcDbLine
 10
7.1410993333
 20
3.8400114999
 30
0.0
 11
7.1410993333
 21
3.7900114995
 31
0.0
  0
LINE
  5
1D9
330
1F
100
AcDbEntity
  8
0
  6
Continuous
 62
     7
370
    30
100
AcDbLine
 10
4.3915077368
 20
3.8400114999
 30
0.0
 11
4.1410992962
 21
3.8400114999
 31
0.0
  0
ARC
  5
1DA
330
1F
100
AcDbEntity
  8
0
  6
Continuous
 62
     7
370
    30
100
AcDbCircle
 10
4.3915077732
 20
3.8650114995
 30
0.0
 40
0.0250000000000008
100
AcDbArc
 50
270.0
 51
21.86614513
  0
ARC
  5
1DB
330
1F
100
AcDbEntity
  8
0
  6
Continuous
 62
     7
370
    30
100
AcDbCircle
 10
4.516099356
 20
3.9150114995
 30
0.0
 40
0.1092499999999999
100
AcDbArc
 50
103.2283724921
 51
201.86614513
  0
LINE
  5
1DC
330
1F
100
AcDbEntity
  8
0
  6
Continuous
 62
     7
370
    30
100
AcDbLine
 10
4.491099413
 20
4.8625236765
 30
0.0
 11
4.491099413
 21
4.0213626236
 31
0.0
  0
ARC
  5
1DD
330
1F
100
AcDbEntity
  8
0
  6
Continuous
 62
     7
370
    30
100
AcDbCircle
 10
4.416099356
 20
4.862523665
 30
0.0
 40
0.0750000000000002
100
AcDbArc
 50
0.0
 51
83.3002348222
  0
ARC
  5
1DE
330
1F
100
AcDbEntity
  8
0
  6
Continuous
 62
     7
370
    30
100
AcDbCircle
 10
4.430099356
 20
4.9817042003
 30
0.0
 40
0.0450000000000008
100
AcDbArc
 50
180.0
 51
263.3002348222
  0
LINE
  5
1DF
330
1F
100
AcDbEntity
  8
0
  6
Continuous
 62
     7
370
    30
100
AcDbLine
 10
4.3850993575
 20
5.0570114764
 30
0.0
 11
4.3850993575
 21
4.9817042197
 31
0.0
  0
ARC
  5
1E0
330
1F
100
AcDbEntity
  8
0
  6
Continuous
 62
     7
370
    30
100
AcDbCircle
 10
4.395099356
 20
5.0570114995
 30
0.0
 40
0.0100000000000007
100
AcDbArc
 50
90.0
 51
180.0
  0
LINE
  5
1E1
330
1F
100
AcDbEntity
  8
0
  6
Continuous
 62
     7
370
    30
100
AcDbLine
 10
4.4015353676
 20
5.0670115342
 30
0.0
 11
4.3950994153
 21
5.0670115342
 31
0.0
  0
LINE
  5
1E2
330
1F
100
AcDbEntity
  8
0
  6
Continuous
 62
     7
370
    30
100
AcDbLine
 10
4.4350993532
 20
5.0270114496
 30
0.0
 11
4.4015353676
 21
5.0670115342
 31
0.0
  0
LINE
  5
1E3
330
1F
100
AcDbEntity
  8
0
  6
Continuous
 62
     7
370
    30
100
AcDbLine
 10
4.4262830284
 20
4.9770115272
 30
0.0
 11
4.4350993532
 21
5.0270114496
 31
0.0
  0
LINE
  5
1E4
330
1F
100
AcDbEntity
  8
0
  6
Continuous
 62
     7
370
    30
100
AcDbLine
 10
4.491099413
 20
4.9770115272
 30
0.0
 11
4.4262830284
 21
4.9770115272
 31
0.0
  0
LINE
  5
1E5
330
1F
100
AcDbEntity
  8
0
  6
Continuous
 62
     7
370
    30
100
AcDbLine
 10
4.491099413
 20
5.6020114738
 30
0.0
 11
4.491099413
 21
4.9770115272
 31
0.0
  0
LINE
  5
1E6
330
1F
100
AcDbEntity
  8
0
  6
Continuous
 62
     7
370
    30
100
AcDbLine
 10
4.5410994087
 20
5.6020114738
 30
0.0
 11
4.491099413
 21
5.6020114738
 31
0.0
  0
LINE
  5
1E7
330
1F
100
AcDbEntity
  8
0
  6
Continuous
 62
     7
370
    30
100
AcDbLine
 10
4.5410994087
 20
4.9770115272
 30
0.0
 11
4.5410994087
 21
5.6020114738
 31
0.0
  0
LINE
  5
1E8
330
1F
100
AcDbEntity
  8
0
  6
Continuous
 62
     7
370
    30
100
AcDbLine
 10
4.6059156466
 20
4.9770115272
 30
0.0
 11
4.5410994087
 21
4.9770115272
 31
0.0
  0
LINE
  5
1E9
330
1F
100
AcDbEntity
  8
0
  6
Continuous
 62
     7
370
    30
100
AcDbLine
 10
4.5970993218
 20
5.0270114496
 30
0.0
 11
4.6059156466
 21
4.9770115272
 31
0.0
  0
LINE
  5
1EA
330
1F
100
AcDbEntity
  8
0
  6
Continuous
 62
     7
370
    30
100
AcDbLine
 10
4.6306633074
 20
5.0670115342
 30
0.0
 11
4.5970993218
 21
5.0270114496
 31
0.0
  0
LINE
  5
1EB
330
1F
100
AcDbEntity
  8
0
  6
Continuous
 62
     7
370
    30
100
AcDbLine
 10
4.6370994064
 20
5.0670115342
 30
0.0
 11
4.6306633074
 21
5.0670115342
 31
0.0
  0
ARC
  5
1EC
330
1F
100
AcDbEntity
  8
0
  6
Continuous
 62
     7
370
    30
100
AcDbCircle
 10
4.637099356
 20
5.0570114995
 30
0.0
 40
0.0100000000000007
100
AcDbArc
 50
0.0
 51
90.0
  0
LINE
  5
1ED
330
1F
100
AcDbEntity
  8
0
  6
Continuous
 62
     7
370
    30
100
AcDbLine
 10
4.6470993175
 20
4.9817042197
 30
0.0
 11
4.6470993175
 21
5.0570114764
 31
0.0
  0
ARC
  5
1EE
330
1F
100
AcDbEntity
  8
0
  6
Continuous
 62
     7
370
    30
100
AcDbCircle
 10
4.602099356
 20
4.9817042003
 30
0.0
 40
0.0449999999999999
100
AcDbArc
 50
276.6997651778
 51
0.0
  0
ARC
  5
1EF
330
1F
100
AcDbEntity
  8
0
  6
Continuous
 62
     7
370
    30
100
AcDbCircle
 10
4.616099356
 20
4.862523665
 30
0.0
 40
0.075
100
AcDbArc
 50
96.6997651778
 51
180.0
  0
LINE
  5
1F0
330
1F
100
AcDbEntity
  8
0
  6
Continuous
 62
     7
370
    30
100
AcDbLine
 10
4.5410994087
 20
3.9742614977
 30
0.0
 11
4.5410994087
 21
4.8625236765
 31
0.0
  0
LINE
  5
1F1
330
1F
100
AcDbEntity
  8
0
  6
Continuous
 62
     7
370
    30
100
AcDbLine
 10
4.5160993375
 20
3.9742614977
 30
0.0
 11
4.5410994087
 21
3.9742614977
 31
0.0
  0
ARC
  5
1F2
330
1F
100
AcDbEntity
  8
0
  6
Continuous
 62
     7
370
    30
100
AcDbCircle
 10
4.516099356
 20
3.9150114995
 30
0.0
 40
0.05925
100
AcDbArc
 50
90.0
 51
346.9332707857
  0
ARC
  5
1F3
330
1F
100
AcDbEntity
  8
0
  6
Continuous
 62
     7
370
    30
100
AcDbCircle
 10
4.5981679058
 20
3.8959637796
 30
0.0
 40
0.0250000000000003
100
AcDbArc
 50
346.9332707857
 51
166.9332707857
  0
ARC
  5
1F4
330
1F
100
AcDbEntity
  8
0
  6
Continuous
 62
     7
370
    30
100
AcDbCircle
 10
4.516099356
 20
3.9150114995
 30
0.0
 40
0.1092499999999998
100
AcDbArc
 50
338.13385487
 51
346.9332707857
  0
ARC
  5
1F5
330
1F
100
AcDbEntity
  8
0
  6
Continuous
 62
     7
370
    30
100
AcDbCircle
 10
4.6406909388
 20
3.8650114995
 30
0.0
 40
0.0250000000000005
100
AcDbArc
 50
158.13385487
 51
270.0
  0
LINE
  5
1F6
330
1F
100
AcDbEntity
  8
0
  6
Continuous
 62
     7
370
    30
100
AcDbLine
 10
4.8910993788
 20
3.8400114999
 30
0.0
 11
4.6406909382
 21
3.8400114999
 31
0.0
  0
LINE
  5
1F7
330
1F
100
AcDbEntity
  8
0
  6
Continuous
 62
     7
370
    30
100
AcDbLine
 10
4.8910993788
 20
3.7900114995
 30
0.0
 11
4.8910993788
 21
3.8400114999
 31
0.0
  0
LINE
  5
1F8
330
1F
100
AcDbEntity
  8
0
  6
Continuous
 62
     7
370
    30
100
AcDbLine
 10
4.1410992962
 20
3.7900114995
 30
0.0
 11
4.8910993788
 21
3.7900114995
 31
0.0
  0
LINE
  5
1F9
330
1F
100
AcDbEntity
  8
0
  6
Continuous
 62
     7
370
    30
100
AcDbLine
 10
4.1410992962
 20
3.8400114999
 30
0.0
 11
4.1410992962
 21
3.7900114995
 31
0.0
  0
LINE
  5
1FA
330
1F
100
AcDbEntity
  8
0
  6
Continuous
 62
     7
370
    30
100
AcDbLine
 10
5.8915077737
 20
3.8400114999
 30
0.0
 11
5.6410993514
 21
3.8400114999
 31
0.0
  0
ARC
  5
1FB
330
1F
100
AcDbEntity
  8
0
  6
Continuous
 62
     7
370
    30
100
AcDbCircle
 10
5.8915077732
 20
3.8650114995
 30
0.0
 40
0.0249999999999999
100
AcDbArc
 50
270.0
 51
21.86614513
  0
ARC
  5
1FC
330
1F
100
AcDbEntity
  8
0
  6
Continuous
 62
     7
370
    30
100
AcDbCircle
 10
6.016099356
 20
3.9150114995
 30
0.0
 40
0.1092500000000008
100
AcDbArc
 50
103.2283724921
 51
201.86614513
  0
LINE
  5
1FD
330
1F
100
AcDbEntity
  8
0
  6
Continuous
 62
     7
370
    30
100
AcDbLine
 10
5.9910993559
 20
4.8625236765
 30
0.0
 11
5.9910993559
 21
4.0213626236
 31
0.0
  0
ARC
  5
1FE
330
1F
100
AcDbEntity
  8
0
  6
Continuous
 62
     7
370
    30
100
AcDbCircle
 10
5.916099356
 20
4.862523665
 30
0.0
 40
0.0750000000000011
100
AcDbArc
 50
0.0
 51
83.3002348222
  0
ARC
  5
1FF
330
1F
100
AcDbEntity
  8
0
  6
Continuous
 62
     7
370
    30
100
AcDbCircle
 10
5.930099356
 20
4.9817042003
 30
0.0
 40
0.0449999999999999
100
AcDbArc
 50
180.0
 51
263.3002348222
  0
LINE
  5
200
330
1F
100
AcDbEntity
  8
0
  6
Continuous
 62
     7
370
    30
100
AcDbLine
 10
5.8850993577
 20
5.0570114764
 30
0.0
 11
5.8850993577
 21
4.9817042197
 31
0.0
  0
ARC
  5
201
330
1F
100
AcDbEntity
  8
0
  6
Continuous
 62
     7
370
    30
100
AcDbCircle
 10
5.895099356
 20
5.0570114995
 30
0.0
 40
0.0100000000000007
100
AcDbArc
 50
90.0
 51
180.0
  0
LINE
  5
202
330
1F
100
AcDbEntity
  8
0
  6
Continuous
 62
     7
370
    30
100
AcDbLine
 10
5.9015353678
 20
5.0670115342
 30
0.0
 11
5.8950993605
 21
5.0670115342
 31
0.0
  0
LINE
  5
203
330
1F
100
AcDbEntity
  8
0
  6
Continuous
 62
     7
370
    30
100
AcDbLine
 10
5.9350993534
 20
5.0270114496
 30
0.0
 11
5.9015353678
 21
5.0670115342
 31
0.0
  0
LINE
  5
204
330
1F
100
AcDbEntity
  8
0
  6
Continuous
 62
     7
370
    30
100
AcDbLine
 10
5.9262830103
 20
4.9770115272
 30
0.0
 11
5.9350993534
 21
5.0270114496
 31
0.0
  0
LINE
  5
205
330
1F
100
AcDbEntity
  8
0
  6
Continuous
 62
     7
370
    30
100
AcDbLine
 10
5.9910993559
 20
4.9770115272
 30
0.0
 11
5.9262830103
 21
4.9770115272
 31
0.0
  0
LINE
  5
206
330
1F
100
AcDbEntity
  8
0
  6
Continuous
 62
     7
370
    30
100
AcDbLine
 10
5.9910993559
 20
5.6020114738
 30
0.0
 11
5.9910993559
 21
4.9770115272
 31
0.0
  0
LINE
  5
207
330
1F
100
AcDbEntity
  8
0
  6
Continuous
 62
     7
370
    30
100
AcDbLine
 10
6.0410993562
 20
5.6020114738
 30
0.0
 11
5.9910993559
 21
5.6020114738
 31
0.0
  0
LINE
  5
208
330
1F
100
AcDbEntity
  8
0
  6
Continuous
 62
     7
370
    30
100
AcDbLine
 10
6.0410993562
 20
4.9770115272
 30
0.0
 11
6.0410993562
 21
5.6020114738
 31
0.0
  0
LINE
  5
209
330
1F
100
AcDbEntity
  8
0
  6
Continuous
 62
     7
370
    30
100
AcDbLine
 10
6.1059157018
 20
4.9770115272
 30
0.0
 11
6.0410993562
 21
4.9770115272
 31
0.0
  0
LINE
  5
20A
330
1F
100
AcDbEntity
  8
0
  6
Continuous
 62
     7
370
    30
100
AcDbLine
 10
6.0970993586
 20
5.0270114496
 30
0.0
 11
6.1059157018
 21
4.9770115272
 31
0.0
  0
LINE
  5
20B
330
1F
100
AcDbEntity
  8
0
  6
Continuous
 62
     7
370
    30
100
AcDbLine
 10
6.1306633442
 20
5.0670115342
 30
0.0
 11
6.0970993586
 21
5.0270114496
 31
0.0
  0
LINE
  5
20C
330
1F
100
AcDbEntity
  8
0
  6
Continuous
 62
     7
370
    30
100
AcDbLine
 10
6.1370993516
 20
5.0670115342
 30
0.0
 11
6.1306633442
 21
5.0670115342
 31
0.0
  0
ARC
  5
20D
330
1F
100
AcDbEntity
  8
0
  6
Continuous
 62
     7
370
    30
100
AcDbCircle
 10
6.137099356
 20
5.0570114995
 30
0.0
 40
0.0099999999999998
100
AcDbArc
 50
0.0
 51
90.0
  0
LINE
  5
20E
330
1F
100
AcDbEntity
  8
0
  6
Continuous
 62
     7
370
    30
100
AcDbLine
 10
6.1470993544
 20
4.9817042197
 30
0.0
 11
6.1470993544
 21
5.0570114764
 31
0.0
  0
ARC
  5
20F
330
1F
100
AcDbEntity
  8
0
  6
Continuous
 62
     7
370
    30
100
AcDbCircle
 10
6.102099356
 20
4.9817042003
 30
0.0
 40
0.0449999999999999
100
AcDbArc
 50
276.6997651778
 51
0.0
  0
ARC
  5
210
330
1F
100
AcDbEntity
  8
0
  6
Continuous
 62
     7
370
    30
100
AcDbCircle
 10
6.116099356
 20
4.862523665
 30
0.0
 40
0.075
100
AcDbArc
 50
96.6997651778
 51
180.0
  0
LINE
  5
211
330
1F
100
AcDbEntity
  8
0
  6
Continuous
 62
     7
370
    30
100
AcDbLine
 10
6.0410993562
 20
3.9742614977
 30
0.0
 11
6.0410993562
 21
4.8625236765
 31
0.0
  0
ARC
  5
212
330
1F
100
AcDbEntity
  8
0
  6
Continuous
 62
     7
370
    30
100
AcDbCircle
 10
6.016099356
 20
3.9150114995
 30
0.0
 40
0.0592500000000009
100
AcDbArc
 50
90.0
 51
346.9332707857
  0
ARC
  5
213
330
1F
100
AcDbEntity
  8
0
  6
Continuous
 62
     7
370
    30
100
AcDbCircle
 10
6.0981679058
 20
3.8959637796
 30
0.0
 40
0.0250000000000003
100
AcDbArc
 50
346.9332707857
 51
166.9332707857
  0
ARC
  5
214
330
1F
100
AcDbEntity
  8
0
  6
Continuous
 62
     7
370
    30
100
AcDbCircle
 10
6.016099356
 20
3.9150114995
 30
0.0
 40
0.1092500000000007
100
AcDbArc
 50
338.13385487
 51
346.9332707857
  0
ARC
  5
215
330
1F
100
AcDbEntity
  8
0
  6
Continuous
 62
     7
370
    30
100
AcDbCircle
 10
6.1406909388
 20
3.8650114995
 30
0.0
 40
0.0250000000000005
100
AcDbArc
 50
158.13385487
 51
270.0
  0
LINE
  5
216
330
1F
100
AcDbEntity
  8
0
  6
Continuous
 62
     7
370
    30
100
AcDbLine
 10
6.3910993607
 20
3.8400114999
 30
0.0
 11
6.1406909384
 21
3.8400114999
 31
0.0
  0
LINE
  5
217
330
1F
100
AcDbEntity
  8
0
  6
Continuous
 62
     7
370
    30
100
AcDbLine
 10
6.3910993607
 20
3.7900114995
 30
0.0
 11
6.3910993607
 21
3.8400114999
 31
0.0
  0
LINE
  5
218
330
1F
100
AcDbEntity
  8
0
  6
Continuous
 62
     7
370
    30
100
AcDbLine
 10
5.6410993514
 20
3.7900114995
 30
0.0
 11
6.3910993607
 21
3.7900114995
 31
0.0
  0
LINE
  5
219
330
1F
100
AcDbEntity
  8
0
  6
Continuous
 62
     7
370
    30
100
AcDbLine
 10
5.6410993514
 20
3.8400114999
 30
0.0
 11
5.6410993514
 21
3.7900114995
 31
0.0
  0
LINE
  5
21A
330
1F
100
AcDbEntity
  8
0
  6
Continuous
 62
     7
370
    30
100
AcDbLine
 10
6.016099356
 20
3.9742614977
 30
0.0
 11
6.0410993562
 21
3.9742614977
 31
0.0
  0
ARC
  5
21B
330
1F
100
AcDbEntity
  8
0
  6
Continuous
 62
     7
370
    30
100
AcDbCircle
 10
6.9378158452
 20
4.8520114995
 30
0.0
 40
0.0250000000000012
100
AcDbArc
 50
90.0
 51
285.0
  0
LINE
  5
21C
330
1F
100
AcDbEntity
  8
0
  6
Continuous
 62
     7
370
    30
100
AcDbLine
 10
6.9703158195
 20
4.8770115358
 30
0.0
 11
6.9378158149
 21
4.8770115358
 31
0.0
  0
ARC
  5
21D
330
1F
100
AcDbEntity
  8
0
  6
Continuous
 62
     7
370
    30
100
AcDbCircle
 10
6.9703158452
 20
4.9580114995
 30
0.0
 40
0.0810000000000013
100
AcDbArc
 50
270.0
 51
70.3026369226
  0
LINE
  5
21E
330
1F
100
AcDbEntity
  8
0
  6
Continuous
 62
     7
370
    30
100
AcDbLine
 10
6.8796341871
 20
5.0765097045
 30
0.0
 11
6.9976170641
 21
5.0342718057
 31
0.0
  0
ARC
  5
21F
330
1F
100
AcDbEntity
  8
0
  6
Continuous
 62
     7
370
    30
100
AcDbCircle
 10
6.8877234558
 20
5.099105383
 30
0.0
 40
0.0240000000000026
100
AcDbArc
 50
217.7718781381
 51
250.3026369226
  0
ARC
  5
220
330
1F
100
AcDbEntity
  8
0
  6
Continuous
 62
     7
370
    30
100
AcDbCircle
 10
6.7553158452
 20
4.996503563
 30
0.0
 40
0.1435079365079387
100
AcDbArc
 50
37.7718781381
 51
142.2281218619
  0
ARC
  5
221
330
1F
100
AcDbEntity
  8
0
  6
Continuous
 62
     7
370
    30
100
AcDbCircle
 10
6.6229082347
 20
5.099105383
 30
0.0
 40
0.0240000000000024
100
AcDbArc
 50
289.6973630774
 51
322.2281218619
  0
LINE
  5
222
330
1F
100
AcDbEntity
  8
0
  6
Continuous
 62
     7
370
    30
100
AcDbLine
 10
6.5728158315
 20
4.8770115358
 30
0.0
 11
6.5403158636
 21
4.8770115358
 31
0.0
  0
ARC
  5
223
330
1F
100
AcDbEntity
  8
0
  6
Continuous
 62
     7
370
    30
100
AcDbCircle
 10
6.5728158452
 20
4.8520114995
 30
0.0
 40
0.0250000000000012
100
AcDbArc
 50
255.0
 51
90.0
  0
LINE
  5
224
330
1F
100
AcDbEntity
  8
0
  6
Continuous
 62
     7
370
    30
100
AcDbLine
 10
6.5209468473
 20
4.8400278363
 30
0.0
 11
6.5663453762
 21
4.8278633702
 31
0.0
  0
LINE
  5
225
330
1F
100
AcDbEntity
  8
0
  6
Continuous
 62
     7
370
    30
100
AcDbLine
 10
6.5209468473
 20
4.8400278363
 30
0.0
 11
6.5240526981
 21
4.8516189891
 31
0.0
  0
LINE
  5
226
330
1F
100
AcDbEntity
  8
0
  6
Continuous
 62
     7
370
    30
100
AcDbLine
 10
6.5240526981
 20
4.8516189891
 30
0.0
 11
6.5694511903
 21
4.8394544496
 31
0.0
  0
ARC
  5
227
330
1F
100
AcDbEntity
  8
0
  6
Continuous
 62
     7
370
    30
100
AcDbCircle
 10
6.5728158452
 20
4.8520114995
 30
0.0
 40
0.0130000000000008
100
AcDbArc
 50
255.0
 51
90.0
  0
LINE
  5
228
330
1F
100
AcDbEntity
  8
0
  6
Continuous
 62
     7
370
    30
100
AcDbLine
 10
6.5728158315
 20
4.865011481
 30
0.0
 11
6.5403158636
 21
4.865011481
 31
0.0
  0
ARC
  5
229
330
1F
100
AcDbEntity
  8
0
  6
Continuous
 62
     7
370
    30
100
AcDbCircle
 10
6.5403158452
 20
4.9580114995
 30
0.0
 40
0.0930000000000017
100
AcDbArc
 50
109.6973630774
 51
270.0
  0
LINE
  5
22A
330
1F
100
AcDbEntity
  8
0
  6
Continuous
 62
     7
370
    30
100
AcDbLine
 10
6.5089700023
 20
5.0455697019
 30
0.0
 11
6.6269528427
 21
5.0878076006
 31
0.0
  0
ARC
  5
22B
330
1F
100
AcDbEntity
  8
0
  6
Continuous
 62
     7
370
    30
100
AcDbCircle
 10
6.6229082347
 20
5.099105383
 30
0.0
 40
0.0120000000000001
100
AcDbArc
 50
289.6973630774
 51
322.2281218619
  0
ARC
  5
22C
330
1F
100
AcDbEntity
  8
0
  6
Continuous
 62
     7
370
    30
100
AcDbCircle
 10
6.7553158452
 20
4.996503563
 30
0.0
 40
0.1555079365079394
100
AcDbArc
 50
37.7718781381
 51
142.2281218619
  0
ARC
  5
22D
330
1F
100
AcDbEntity
  8
0
  6
Continuous
 62
     7
370
    30
100
AcDbCircle
 10
6.8877234558
 20
5.099105383
 30
0.0
 40
0.0120000000000006
100
AcDbArc
 50
217.7718781381
 51
250.3026369226
  0
LINE
  5
22E
330
1F
100
AcDbEntity
  8
0
  6
Continuous
 62
     7
370
    30
100
AcDbLine
 10
6.8836788403
 20
5.0878076006
 30
0.0
 11
7.0016616441
 21
5.0455697019
 31
0.0
  0
ARC
  5
22F
330
1F
100
AcDbEntity
  8
0
  6
Continuous
 62
     7
370
    30
100
AcDbCircle
 10
6.9703158452
 20
4.9580114995
 30
0.0
 40
0.0930000000000009
100
AcDbArc
 50
270.0
 51
70.3026369226
  0
LINE
  5
230
330
1F
100
AcDbEntity
  8
0
  6
Continuous
 62
     7
370
    30
100
AcDbLine
 10
6.9703158195
 20
4.865011481
 30
0.0
 11
6.9378158149
 21
4.865011481
 31
0.0
  0
ARC
  5
231
330
1F
100
AcDbEntity
  8
0
  6
Continuous
 62
     7
370
    30
100
AcDbCircle
 10
6.9378158452
 20
4.8520114995
 30
0.0
 40
0.0130000000000017
100
AcDbArc
 50
90.0
 51
285.0
  0
LINE
  5
232
330
1F
100
AcDbEntity
  8
0
  6
Continuous
 62
     7
370
    30
100
AcDbLine
 10
6.9411805294
 20
4.8394544496
 30
0.0
 11
6.986578985
 21
4.8516189891
 31
0.0
  0
LINE
  5
233
330
1F
100
AcDbEntity
  8
0
  6
Continuous
 62
     7
370
    30
100
AcDbLine
 10
6.986578985
 20
4.8516189891
 30
0.0
 11
6.9896848357
 21
4.8400278363
 31
0.0
  0
LINE
  5
234
330
1F
100
AcDbEntity
  8
0
  6
Continuous
 62
     7
370
    30
100
AcDbLine
 10
6.9442863069
 20
4.8278633702
 30
0.0
 11
6.9896848357
 21
4.8400278363
 31
0.0
  0
ARC
  5
235
330
1F
100
AcDbEntity
  8
0
  6
Continuous
 62
     7
370
    30
100
AcDbCircle
 10
6.5403158452
 20
4.9580114995
 30
0.0
 40
0.0810000000000025
100
AcDbArc
 50
109.6973630774
 51
270.0
  0
LINE
  5
236
330
1F
100
AcDbEntity
  8
0
  6
Continuous
 62
     7
370
    30
100
AcDbLine
 10
6.5130146556
 20
5.0342718057
 30
0.0
 11
6.630997496
 21
5.0765097045
 31
0.0
  0
ARC
  5
237
330
1F
100
AcDbEntity
  8
0
  6
Continuous
 62
     7
370
    30
100
AcDbCircle
 10
8.4378158452
 20
4.8520114995
 30
0.0
 40
0.0250000000000012
100
AcDbArc
 50
90.0
 51
285.0
  0
LINE
  5
238
330
1F
100
AcDbEntity
  8
0
  6
Continuous
 62
     7
370
    30
100
AcDbLine
 10
8.4703159114
 20
4.8770115358
 30
0.0
 11
8.4378158335
 21
4.8770115358
 31
0.0
  0
ARC
  5
239
330
1F
100
AcDbEntity
  8
0
  6
Continuous
 62
     7
370
    30
100
AcDbCircle
 10
8.4703158452
 20
4.9580114995
 30
0.0
 40
0.0810000000000013
100
AcDbArc
 50
270.0
 51
70.3026369226
  0
LINE
  5
23A
330
1F
100
AcDbEntity
  8
0
  6
Continuous
 62
     7
370
    30
100
AcDbLine
 10
8.3796342789
 20
5.0765097045
 30
0.0
 11
8.4976170093
 21
5.0342718057
 31
0.0
  0
ARC
  5
23B
330
1F
100
AcDbEntity
  8
0
  6
Continuous
 62
     7
370
    30
100
AcDbCircle
 10
8.3877234558
 20
5.099105383
 30
0.0
 40
0.0240000000000026
100
AcDbArc
 50
217.7718781381
 51
250.3026369226
  0
ARC
  5
23C
330
1F
100
AcDbEntity
  8
0
  6
Continuous
 62
     7
370
    30
100
AcDbCircle
 10
8.2553158452
 20
4.996503563
 30
0.0
 40
0.1435079365079381
100
AcDbArc
 50
37.7718781381
 51
142.2281218619
  0
ARC
  5
23D
330
1F
100
AcDbEntity
  8
0
  6
Continuous
 62
     7
370
    30
100
AcDbCircle
 10
8.1229082347
 20
5.099105383
 30
0.0
 40
0.0240000000000018
100
AcDbArc
 50
289.6973630774
 51
322.2281218619
  0
LINE
  5
23E
330
1F
100
AcDbEntity
  8
0
  6
Continuous
 62
     7
370
    30
100
AcDbLine
 10
8.0130146742
 20
5.0342718057
 30
0.0
 11
8.1309975512
 21
5.0765097045
 31
0.0
  0
ARC
  5
23F
330
1F
100
AcDbEntity
  8
0
  6
Continuous
 62
     7
370
    30
100
AcDbCircle
 10
8.0403158452
 20
4.9580114995
 30
0.0
 40
0.0810000000000014
100
AcDbArc
 50
109.6973630774
 51
270.0
  0
LINE
  5
240
330
1F
100
AcDbEntity
  8
0
  6
Continuous
 62
     7
370
    30
100
AcDbLine
 10
8.07281585
 20
4.8770115358
 30
0.0
 11
8.0403157721
 21
4.8770115358
 31
0.0
  0
LINE
  5
241
330
1F
100
AcDbEntity
  8
0
  6
Continuous
 62
     7
370
    30
100
AcDbLine
 10
8.0209469025
 20
4.8400278363
 30
0.0
 11
8.0663454314
 21
4.8278633702
 31
0.0
  0
LINE
  5
242
330
1F
100
AcDbEntity
  8
0
  6
Continuous
 62
     7
370
    30
100
AcDbLine
 10
8.0209469025
 20
4.8400278363
 30
0.0
 11
8.02405268
 21
4.8516189891
 31
0.0
  0
LINE
  5
243
330
1F
100
AcDbEntity
  8
0
  6
Continuous
 62
     7
370
    30
100
AcDbLine
 10
8.02405268
 20
4.8516189891
 30
0.0
 11
8.0694512089
 21
4.8394544496
 31
0.0
  0
ARC
  5
244
330
1F
100
AcDbEntity
  8
0
  6
Continuous
 62
     7
370
    30
100
AcDbCircle
 10
8.0728158452
 20
4.8520114995
 30
0.0
 40
0.0130000000000008
100
AcDbArc
 50
255.0
 51
90.0
  0
LINE
  5
245
330
1F
100
AcDbEntity
  8
0
  6
Continuous
 62
     7
370
    30
100
AcDbLine
 10
8.07281585
 20
4.865011481
 30
0.0
 11
8.0403157721
 21
4.865011481
 31
0.0
  0
ARC
  5
246
330
1F
100
AcDbEntity
  8
0
  6
Continuous
 62
     7
370
    30
100
AcDbCircle
 10
8.0403158452
 20
4.9580114995
 30
0.0
 40
0.0930000000000026
100
AcDbArc
 50
109.6973630774
 51
270.0
  0
LINE
  5
247
330
1F
100
AcDbEntity
  8
0
  6
Continuous
 62
     7
370
    30
100
AcDbLine
 10
8.0089699475
 20
5.0455697019
 30
0.0
 11
8.1269528246
 21
5.0878076006
 31
0.0
  0
ARC
  5
248
330
1F
100
AcDbEntity
  8
0
  6
Continuous
 62
     7
370
    30
100
AcDbCircle
 10
8.2553158452
 20
4.996503563
 30
0.0
 40
0.155507936507938
100
AcDbArc
 50
37.7718781381
 51
142.2281218619
  0
ARC
  5
249
330
1F
100
AcDbEntity
  8
0
  6
Continuous
 62
     7
370
    30
100
AcDbCircle
 10
8.3877234558
 20
5.099105383
 30
0.0
 40
0.0120000000000008
100
AcDbArc
 50
217.7718781381
 51
250.3026369226
  0
LINE
  5
24A
330
1F
100
AcDbEntity
  8
0
  6
Continuous
 62
     7
370
    30
100
AcDbLine
 10
8.3836788589
 20
5.0878076006
 30
0.0
 11
8.5016617359
 21
5.0455697019
 31
0.0
  0
ARC
  5
24B
330
1F
100
AcDbEntity
  8
0
  6
Continuous
 62
     7
370
    30
100
AcDbCircle
 10
8.4703158452
 20
4.9580114995
 30
0.0
 40
0.0930000000000017
100
AcDbArc
 50
270.0
 51
70.3026369226
  0
LINE
  5
24C
330
1F
100
AcDbEntity
  8
0
  6
Continuous
 62
     7
370
    30
100
AcDbLine
 10
8.4703159114
 20
4.865011481
 30
0.0
 11
8.4378158335
 21
4.865011481
 31
0.0
  0
ARC
  5
24D
330
1F
100
AcDbEntity
  8
0
  6
Continuous
 62
     7
370
    30
100
AcDbCircle
 10
8.4378158452
 20
4.8520114995
 30
0.0
 40
0.0130000000000008
100
AcDbArc
 50
90.0
 51
285.0
  0
LINE
  5
24E
330
1F
100
AcDbEntity
  8
0
  6
Continuous
 62
     7
370
    30
100
AcDbLine
 10
8.4411804746
 20
4.8394544496
 30
0.0
 11
8.4865790035
 21
4.8516189891
 31
0.0
  0
LINE
  5
24F
330
1F
100
AcDbEntity
  8
0
  6
Continuous
 62
     7
370
    30
100
AcDbLine
 10
8.4865790035
 20
4.8516189891
 30
0.0
 11
8.489684781
 21
4.8400278363
 31
0.0
  0
LINE
  5
250
330
1F
100
AcDbEntity
  8
0
  6
Continuous
 62
     7
370
    30
100
AcDbLine
 10
8.4442862521
 20
4.8278633702
 30
0.0
 11
8.489684781
 21
4.8400278363
 31
0.0
  0
ARC
  5
251
330
1F
100
AcDbEntity
  8
0
  6
Continuous
 62
     7
370
    30
100
AcDbCircle
 10
8.0728158452
 20
4.8520114995
 30
0.0
 40
0.0250000000000012
100
AcDbArc
 50
255.0
 51
90.0
  0
ARC
  5
252
330
1F
100
AcDbEntity
  8
0
  6
Continuous
 62
     7
370
    30
100
AcDbCircle
 10
8.1229082347
 20
5.099105383
 30
0.0
 40
0.0120000000000008
100
AcDbArc
 50
289.6973630774
 51
322.2281218619
  0
ARC
  5
253
330
1F
100
AcDbEntity
  8
0
  6
Continuous
 62
     7
370
    30
100
AcDbCircle
 10
3.9378158452
 20
4.8520114995
 30
0.0
 40
0.0250000000000004
100
AcDbArc
 50
90.0
 51
285.0
  0
LINE
  5
254
330
1F
100
AcDbEntity
  8
0
  6
Continuous
 62
     7
370
    30
100
AcDbLine
 10
3.9703158558
 20
4.8770115358
 30
0.0
 11
3.9378157779
 21
4.8770115358
 31
0.0
  0
ARC
  5
255
330
1F
100
AcDbEntity
  8
0
  6
Continuous
 62
     7
370
    30
100
AcDbCircle
 10
3.9703158452
 20
4.9580114995
 30
0.0
 40
0.0810000000000022
100
AcDbArc
 50
270.0
 51
70.3026369226
  0
LINE
  5
256
330
1F
100
AcDbEntity
  8
0
  6
Continuous
 62
     7
370
    30
100
AcDbLine
 10
3.8796342233
 20
5.0765097045
 30
0.0
 11
3.9976171004
 21
5.0342718057
 31
0.0
  0
ARC
  5
257
330
1F
100
AcDbEntity
  8
0
  6
Continuous
 62
     7
370
    30
100
AcDbCircle
 10
3.8877234558
 20
5.099105383
 30
0.0
 40
0.0240000000000036
100
AcDbArc
 50
217.7718781381
 51
250.3026369226
  0
ARC
  5
258
330
1F
100
AcDbEntity
  8
0
  6
Continuous
 62
     7
370
    30
100
AcDbCircle
 10
3.7553158452
 20
4.996503563
 30
0.0
 40
0.1435079365079406
100
AcDbArc
 50
37.7718781381
 51
142.2281218619
  0
ARC
  5
259
330
1F
100
AcDbEntity
  8
0
  6
Continuous
 62
     7
370
    30
100
AcDbCircle
 10
3.6229082347
 20
5.099105383
 30
0.0
 40
0.0240000000000028
100
AcDbArc
 50
289.6973630774
 51
322.2281218619
  0
ARC
  5
25A
330
1F
100
AcDbEntity
  8
0
  6
Continuous
 62
     7
370
    30
100
AcDbCircle
 10
3.5403158452
 20
4.9580114995
 30
0.0
 40
0.081000000000002
100
AcDbArc
 50
109.6973630774
 51
270.0
  0
LINE
  5
25B
330
1F
100
AcDbEntity
  8
0
  6
Continuous
 62
     7
370
    30
100
AcDbLine
 10
3.5209468469
 20
4.8400278363
 30
0.0
 11
3.5663453758
 21
4.8278633702
 31
0.0
  0
LINE
  5
25C
330
1F
100
AcDbEntity
  8
0
  6
Continuous
 62
     7
370
    30
100
AcDbLine
 10
3.5209468469
 20
4.8400278363
 30
0.0
 11
3.5240526244
 21
4.8516189891
 31
0.0
  0
LINE
  5
25D
330
1F
100
AcDbEntity
  8
0
  6
Continuous
 62
     7
370
    30
100
AcDbLine
 10
3.5240526244
 20
4.8516189891
 30
0.0
 11
3.5694511532
 21
4.8394544496
 31
0.0
  0
ARC
  5
25E
330
1F
100
AcDbEntity
  8
0
  6
Continuous
 62
     7
370
    30
100
AcDbCircle
 10
3.5728158452
 20
4.8520114995
 30
0.0
 40
0.0130000000000008
100
AcDbArc
 50
255.0
 51
90.0
  0
LINE
  5
25F
330
1F
100
AcDbEntity
  8
0
  6
Continuous
 62
     7
370
    30
100
AcDbLine
 10
3.5728157944
 20
4.865011481
 30
0.0
 11
3.5403157165
 21
4.865011481
 31
0.0
  0
ARC
  5
260
330
1F
100
AcDbEntity
  8
0
  6
Continuous
 62
     7
370
    30
100
AcDbCircle
 10
3.5403158452
 20
4.9580114995
 30
0.0
 40
0.0930000000000022
100
AcDbArc
 50
109.6973630774
 51
270.0
  0
LINE
  5
261
330
1F
100
AcDbEntity
  8
0
  6
Continuous
 62
     7
370
    30
100
AcDbLine
 10
3.5089698919
 20
5.0455697019
 30
0.0
 11
3.6269529156
 21
5.0878076006
 31
0.0
  0
ARC
  5
262
330
1F
100
AcDbEntity
  8
0
  6
Continuous
 62
     7
370
    30
100
AcDbCircle
 10
3.7553158452
 20
4.996503563
 30
0.0
 40
0.1555079365079396
100
AcDbArc
 50
37.7718781381
 51
142.2281218619
  0
ARC
  5
263
330
1F
100
AcDbEntity
  8
0
  6
Continuous
 62
     7
370
    30
100
AcDbCircle
 10
3.8877234558
 20
5.099105383
 30
0.0
 40
0.012000000000001
100
AcDbArc
 50
217.7718781381
 51
250.3026369226
  0
LINE
  5
264
330
1F
100
AcDbEntity
  8
0
  6
Continuous
 62
     7
370
    30
100
AcDbLine
 10
3.8836788033
 20
5.0878076006
 30
0.0
 11
4.0016616803
 21
5.0455697019
 31
0.0
  0
ARC
  5
265
330
1F
100
AcDbEntity
  8
0
  6
Continuous
 62
     7
370
    30
100
AcDbCircle
 10
3.9703158452
 20
4.9580114995
 30
0.0
 40
0.0930000000000017
100
AcDbArc
 50
270.0
 51
70.3026369226
  0
LINE
  5
266
330
1F
100
AcDbEntity
  8
0
  6
Continuous
 62
     7
370
    30
100
AcDbLine
 10
3.9703158558
 20
4.865011481
 30
0.0
 11
3.9378157779
 21
4.865011481
 31
0.0
  0
ARC
  5
267
330
1F
100
AcDbEntity
  8
0
  6
Continuous
 62
     7
370
    30
100
AcDbCircle
 10
3.9378158452
 20
4.8520114995
 30
0.0
 40
0.0130000000000008
100
AcDbArc
 50
90.0
 51
285.0
  0
LINE
  5
268
330
1F
100
AcDbEntity
  8
0
  6
Continuous
 62
     7
370
    30
100
AcDbLine
 10
3.9411805657
 20
4.8394544496
 30
0.0
 11
3.9865789479
 21
4.8516189891
 31
0.0
  0
LINE
  5
269
330
1F
100
AcDbEntity
  8
0
  6
Continuous
 62
     7
370
    30
100
AcDbLine
 10
3.9865789479
 20
4.8516189891
 30
0.0
 11
3.989684872
 21
4.8400278363
 31
0.0
  0
LINE
  5
26A
330
1F
100
AcDbEntity
  8
0
  6
Continuous
 62
     7
370
    30
100
AcDbLine
 10
3.9442863431
 20
4.8278633702
 30
0.0
 11
3.989684872
 21
4.8400278363
 31
0.0
  0
LINE
  5
26B
330
1F
100
AcDbEntity
  8
0
  6
Continuous
 62
     7
370
    30
100
AcDbLine
 10
3.5728157944
 20
4.8770115358
 30
0.0
 11
3.5403157165
 21
4.8770115358
 31
0.0
  0
ARC
  5
26C
330
1F
100
AcDbEntity
  8
0
  6
Continuous
 62
     7
370
    30
100
AcDbCircle
 10
3.6229082347
 20
5.099105383
 30
0.0
 40
0.0120000000000004
100
AcDbArc
 50
289.6973630774
 51
322.2281218619
  0
LINE
  5
26D
330
1F
100
AcDbEntity
  8
0
  6
Continuous
 62
     7
370
    30
100
AcDbLine
 10
3.5130146185
 20
5.0342718057
 30
0.0
 11
3.6309974956
 21
5.0765097045
 31
0.0
  0
ARC
  5
26E
330
1F
100
AcDbEntity
  8
0
  6
Continuous
 62
     7
370
    30
100
AcDbCircle
 10
3.5728158452
 20
4.8520114995
 30
0.0
 40
0.0250000000000009
100
AcDbArc
 50
255.0
 51
90.0
  0
ARC
  5
26F
330
1F
100
AcDbEntity
  8
0
  6
Continuous
 62
     7
370
    30
100
AcDbCircle
 10
5.4378158452
 20
4.8520114995
 30
0.0
 40
0.0250000000000012
100
AcDbArc
 50
90.0
 51
285.0
  0
LINE
  5
270
330
1F
100
AcDbEntity
  8
0
  6
Continuous
 62
     7
370
    30
100
AcDbLine
 10
5.4703158376
 20
4.8770115358
 30
0.0
 11
5.4378158331
 21
4.8770115358
 31
0.0
  0
ARC
  5
271
330
1F
100
AcDbEntity
  8
0
  6
Continuous
 62
     7
370
    30
100
AcDbCircle
 10
5.4703158452
 20
4.9580114995
 30
0.0
 40
0.0810000000000022
100
AcDbArc
 50
270.0
 51
70.3026369226
  0
LINE
  5
272
330
1F
100
AcDbEntity
  8
0
  6
Continuous
 62
     7
370
    30
100
AcDbLine
 10
5.3796342419
 20
5.0765097045
 30
0.0
 11
5.4976170456
 21
5.0342718057
 31
0.0
  0
ARC
  5
273
330
1F
100
AcDbEntity
  8
0
  6
Continuous
 62
     7
370
    30
100
AcDbCircle
 10
5.3877234558
 20
5.099105383
 30
0.0
 40
0.0240000000000038
100
AcDbArc
 50
217.7718781381
 51
250.3026369226
  0
ARC
  5
274
330
1F
100
AcDbEntity
  8
0
  6
Continuous
 62
     7
370
    30
100
AcDbCircle
 10
5.2553158452
 20
4.996503563
 30
0.0
 40
0.1435079365079381
100
AcDbArc
 50
37.7718781381
 51
142.2281218619
  0
ARC
  5
275
330
1F
100
AcDbEntity
  8
0
  6
Continuous
 62
     7
370
    30
100
AcDbCircle
 10
5.1229082347
 20
5.099105383
 30
0.0
 40
0.0240000000000018
100
AcDbArc
 50
289.6973630774
 51
322.2281218619
  0
LINE
  5
276
330
1F
100
AcDbEntity
  8
0
  6
Continuous
 62
     7
370
    30
100
AcDbLine
 10
5.0209468654
 20
4.8400278363
 30
0.0
 11
5.0663453943
 21
4.8278633702
 31
0.0
  0
LINE
  5
277
330
1F
100
AcDbEntity
  8
0
  6
Continuous
 62
     7
370
    30
100
AcDbLine
 10
5.0209468654
 20
4.8400278363
 30
0.0
 11
5.0240527162
 21
4.8516189891
 31
0.0
  0
LINE
  5
278
330
1F
100
AcDbEntity
  8
0
  6
Continuous
 62
     7
370
    30
100
AcDbLine
 10
5.0240527162
 20
4.8516189891
 30
0.0
 11
5.0694511718
 21
4.8394544496
 31
0.0
  0
ARC
  5
279
330
1F
100
AcDbEntity
  8
0
  6
Continuous
 62
     7
370
    30
100
AcDbCircle
 10
5.0728158452
 20
4.8520114995
 30
0.0
 40
0.0130000000000008
100
AcDbArc
 50
255.0
 51
90.0
  0
LINE
  5
27A
330
1F
100
AcDbEntity
  8
0
  6
Continuous
 62
     7
370
    30
100
AcDbLine
 10
5.0728158129
 20
4.865011481
 30
0.0
 11
5.0403158817
 21
4.865011481
 31
0.0
  0
ARC
  5
27B
330
1F
100
AcDbEntity
  8
0
  6
Continuous
 62
     7
370
    30
100
AcDbCircle
 10
5.0403158452
 20
4.9580114995
 30
0.0
 40
0.0930000000000017
100
AcDbArc
 50
109.6973630774
 51
270.0
  0
LINE
  5
27C
330
1F
100
AcDbEntity
  8
0
  6
Continuous
 62
     7
370
    30
100
AcDbLine
 10
5.0089699838
 20
5.0455697019
 30
0.0
 11
5.1269528609
 21
5.0878076006
 31
0.0
  0
ARC
  5
27D
330
1F
100
AcDbEntity
  8
0
  6
Continuous
 62
     7
370
    30
100
AcDbCircle
 10
5.1229082347
 20
5.099105383
 30
0.0
 40
0.0120000000000001
100
AcDbArc
 50
289.6973630774
 51
322.2281218619
  0
ARC
  5
27E
330
1F
100
AcDbEntity
  8
0
  6
Continuous
 62
     7
370
    30
100
AcDbCircle
 10
5.3877234558
 20
5.099105383
 30
0.0
 40
0.0120000000000009
100
AcDbArc
 50
217.7718781381
 51
250.3026369226
  0
LINE
  5
27F
330
1F
100
AcDbEntity
  8
0
  6
Continuous
 62
     7
370
    30
100
AcDbLine
 10
5.3836788218
 20
5.0878076006
 30
0.0
 11
5.5016616622
 21
5.0455697019
 31
0.0
  0
ARC
  5
280
330
1F
100
AcDbEntity
  8
0
  6
Continuous
 62
     7
370
    30
100
AcDbCircle
 10
5.4703158452
 20
4.9580114995
 30
0.0
 40
0.0930000000000017
100
AcDbArc
 50
270.0
 51
70.3026369226
  0
LINE
  5
281
330
1F
100
AcDbEntity
  8
0
  6
Continuous
 62
     7
370
    30
100
AcDbLine
 10
5.4703158376
 20
4.865011481
 30
0.0
 11
5.4378158331
 21
4.865011481
 31
0.0
  0
ARC
  5
282
330
1F
100
AcDbEntity
  8
0
  6
Continuous
 62
     7
370
    30
100
AcDbCircle
 10
5.4378158452
 20
4.8520114995
 30
0.0
 40
0.0130000000000017
100
AcDbArc
 50
90.0
 51
285.0
  0
LINE
  5
283
330
1F
100
AcDbEntity
  8
0
  6
Continuous
 62
     7
370
    30
100
AcDbLine
 10
5.4411805109
 20
4.8394544496
 30
0.0
 11
5.4865790031
 21
4.8516189891
 31
0.0
  0
LINE
  5
284
330
1F
100
AcDbEntity
  8
0
  6
Continuous
 62
     7
370
    30
100
AcDbLine
 10
5.4865790031
 20
4.8516189891
 30
0.0
 11
5.4896848172
 21
4.8400278363
 31
0.0
  0
LINE
  5
285
330
1F
100
AcDbEntity
  8
0
  6
Continuous
 62
     7
370
    30
100
AcDbLine
 10
5.444286325
 20
4.8278633702
 30
0.0
 11
5.4896848172
 21
4.8400278363
 31
0.0
  0
ARC
  5
286
330
1F
100
AcDbEntity
  8
0
  6
Continuous
 62
     7
370
    30
100
AcDbCircle
 10
5.0403158452
 20
4.9580114995
 30
0.0
 40
0.0810000000000017
100
AcDbArc
 50
109.6973630774
 51
270.0
  0
ARC
  5
287
330
1F
100
AcDbEntity
  8
0
  6
Continuous
 62
     7
370
    30
100
AcDbCircle
 10
5.0728158452
 20
4.8520114995
 30
0.0
 40
0.0250000000000012
100
AcDbArc
 50
255.0
 51
90.0
  0
LINE
  5
288
330
1F
100
AcDbEntity
  8
0
  6
Continuous
 62
     7
370
    30
100
AcDbLine
 10
5.0130146371
 20
5.0342718057
 30
0.0
 11
5.1309975141
 21
5.0765097045
 31
0.0
  0
ARC
  5
289
330
1F
100
AcDbEntity
  8
0
  6
Continuous
 62
     7
370
    30
100
AcDbCircle
 10
5.2553158452
 20
4.996503563
 30
0.0
 40
0.1555079365079382
100
AcDbArc
 50
37.7718781381
 51
142.2281218619
  0
LINE
  5
28A
330
1F
100
AcDbEntity
  8
0
  6
Continuous
 62
     7
370
    30
100
AcDbLine
 10
5.0728158129
 20
4.8770115358
 30
0.0
 11
5.0403158817
 21
4.8770115358
 31
0.0
  0
ARC
  5
28B
330
1F
100
AcDbEntity
  8
0
  6
Continuous
 62
     7
370
    30
100
AcDbCircle
 10
5.4133158452
 20
4.7648320868
 30
0.0
 40
0.032
100
AcDbArc
 50
0.0
 51
60.1644397768
  0
LINE
  5
28C
330
1F
100
AcDbEntity
  8
0
  6
Continuous
 62
     7
370
    30
100
AcDbLine
 10
5.4453158398
 20
4.6470115261
 30
0.0
 11
5.4453158398
 21
4.7648321183
 31
0.0
  0
ARC
  5
28D
330
1F
100
AcDbEntity
  8
0
  6
Continuous
 62
     7
370
    30
100
AcDbCircle
 10
5.7133158452
 20
4.6470114995
 30
0.0
 40
0.2679999999999992
100
AcDbArc
 50
180.0
 51
243.2145316219
  0
ARC
  5
28E
330
1F
100
AcDbEntity
  8
0
  6
Continuous
 62
     7
370
    30
100
AcDbCircle
 10
5.572262037
 20
4.3675963547
 30
0.0
 40
0.0450000000000003
100
AcDbArc
 50
351.9770130931
 51
63.2145316219
  0
ARC
  5
28F
330
1F
100
AcDbEntity
  8
0
  6
Continuous
 62
     7
370
    30
100
AcDbCircle
 10
5.2633158452
 20
4.411142314
 30
0.0
 40
0.3569999999999998
100
AcDbArc
 50
278.8498830984
 51
351.9770130931
  0
ARC
  5
290
330
1F
100
AcDbEntity
  8
0
  6
Continuous
 62
     7
370
    30
100
AcDbCircle
 10
5.3133158452
 20
4.0900114995
 30
0.0
 40
0.0320000000000009
100
AcDbArc
 50
180.0
 51
278.8498830984
  0
LINE
  5
291
330
1F
100
AcDbEntity
  8
0
  6
Continuous
 62
     7
370
    30
100
AcDbLine
 10
5.2813158376
 20
4.2200114921
 30
0.0
 11
5.2813158376
 21
4.0900114922
 31
0.0
  0
LINE
  5
292
330
1F
100
AcDbEntity
  8
0
  6
Continuous
 62
     7
370
    30
100
AcDbLine
 10
5.2813158376
 20
4.2200114921
 30
0.0
 11
5.2633158656
 21
4.2200114921
 31
0.0
  0
LINE
  5
293
330
1F
100
AcDbEntity
  8
0
  6
Continuous
 62
     7
370
    30
100
AcDbLine
 10
5.2633158656
 20
4.2200114921
 30
0.0
 11
5.2633158656
 21
4.0900114922
 31
0.0
  0
ARC
  5
294
330
1F
100
AcDbEntity
  8
0
  6
Continuous
 62
     7
370
    30
100
AcDbCircle
 10
5.3133158452
 20
4.0900114995
 30
0.0
 40
0.0500000000000002
100
AcDbArc
 50
180.0
 51
278.8498830984
  0
ARC
  5
295
330
1F
100
AcDbEntity
  8
0
  6
Continuous
 62
     7
370
    30
100
AcDbCircle
 10
5.2633158452
 20
4.411142314
 30
0.0
 40
0.3750000000000005
100
AcDbArc
 50
278.8498830984
 51
351.9770130931
  0
ARC
  5
296
330
1F
100
AcDbEntity
  8
0
  6
Continuous
 62
     7
370
    30
100
AcDbCircle
 10
5.572262037
 20
4.3675963547
 30
0.0
 40
0.0630000000000005
100
AcDbArc
 50
351.9770130931
 51
63.2145316219
  0
ARC
  5
297
330
1F
100
AcDbEntity
  8
0
  6
Continuous
 62
     7
370
    30
100
AcDbCircle
 10
5.7133158452
 20
4.6470114995
 30
0.0
 40
0.25
100
AcDbArc
 50
180.0
 51
243.2145316219
  0
LINE
  5
298
330
1F
100
AcDbEntity
  8
0
  6
Continuous
 62
     7
370
    30
100
AcDbLine
 10
5.4633158485
 20
4.6470115261
 30
0.0
 11
5.4633158485
 21
4.7648321183
 31
0.0
  0
ARC
  5
299
330
1F
100
AcDbEntity
  8
0
  6
Continuous
 62
     7
370
    30
100
AcDbCircle
 10
5.4133158452
 20
4.7648320868
 30
0.0
 40
0.0499999999999989
100
AcDbArc
 50
0.0
 51
60.1644397768
  0
ARC
  5
29A
330
1F
100
AcDbEntity
  8
0
  6
Continuous
 62
     7
370
    30
100
AcDbCircle
 10
5.4633158452
 20
4.8520114995
 30
0.0
 40
0.0505000000000007
100
AcDbArc
 50
70.0
 51
240.1644397768
  0
LINE
  5
29B
330
1F
100
AcDbEntity
  8
0
  6
Continuous
 62
     7
370
    30
100
AcDbLine
 10
5.480587849
 20
4.899465943
 30
0.0
 11
5.4867442212
 21
4.9163804476
 31
0.0
  0
ARC
  5
29C
330
1F
100
AcDbEntity
  8
0
  6
Continuous
 62
     7
370
    30
100
AcDbCircle
 10
5.4633158452
 20
4.8520114995
 30
0.0
 40
0.0684999999999999
100
AcDbArc
 50
70.0
 51
240.1644397768
  0
ARC
  5
29D
330
1F
100
AcDbEntity
  8
0
  6
Continuous
 62
     7
370
    30
100
AcDbCircle
 10
5.0973158452
 20
4.7648320868
 30
0.0
 40
0.032
100
AcDbArc
 50
119.8355602232
 51
180.0
  0
LINE
  5
29E
330
1F
100
AcDbEntity
  8
0
  6
Continuous
 62
     7
370
    30
100
AcDbLine
 10
5.0653158796
 20
4.6470115261
 30
0.0
 11
5.0653158796
 21
4.7648321183
 31
0.0
  0
ARC
  5
29F
330
1F
100
AcDbEntity
  8
0
  6
Continuous
 62
     7
370
    30
100
AcDbCircle
 10
4.7973158452
 20
4.6470114995
 30
0.0
 40
0.268
100
AcDbArc
 50
296.7854683781
 51
0.0
  0
ARC
  5
2A0
330
1F
100
AcDbEntity
  8
0
  6
Continuous
 62
     7
370
    30
100
AcDbCircle
 10
4.9383696534
 20
4.3675963547
 30
0.0
 40
0.0450000000000003
100
AcDbArc
 50
116.7854683781
 51
188.0229869069
  0
ARC
  5
2A1
330
1F
100
AcDbEntity
  8
0
  6
Continuous
 62
     7
370
    30
100
AcDbCircle
 10
5.2473158452
 20
4.411142314
 30
0.0
 40
0.3569999999999999
100
AcDbArc
 50
188.0229869069
 51
261.1501169016
  0
ARC
  5
2A2
330
1F
100
AcDbEntity
  8
0
  6
Continuous
 62
     7
370
    30
100
AcDbCircle
 10
5.1973158452
 20
4.0900114995
 30
0.0
 40
0.0320000000000004
100
AcDbArc
 50
261.1501169016
 51
0.0
  0
LINE
  5
2A3
330
1F
100
AcDbEntity
  8
0
  6
Continuous
 62
     7
370
    30
100
AcDbLine
 10
5.229315845
 20
4.2200114921
 30
0.0
 11
5.229315845
 21
4.0900114922
 31
0.0
  0
LINE
  5
2A4
330
1F
100
AcDbEntity
  8
0
  6
Continuous
 62
     7
370
    30
100
AcDbLine
 10
5.229315845
 20
4.2200114921
 30
0.0
 11
5.2473158171
 21
4.2200114921
 31
0.0
  0
LINE
  5
2A5
330
1F
100
AcDbEntity
  8
0
  6
Continuous
 62
     7
370
    30
100
AcDbLine
 10
5.2473158171
 20
4.2200114921
 30
0.0
 11
5.2473158171
 21
4.0900114922
 31
0.0
  0
ARC
  5
2A6
330
1F
100
AcDbEntity
  8
0
  6
Continuous
 62
     7
370
    30
100
AcDbCircle
 10
5.1973158452
 20
4.0900114995
 30
0.0
 40
0.0500000000000002
100
AcDbArc
 50
261.1501169016
 51
0.0
  0
ARC
  5
2A7
330
1F
100
AcDbEntity
  8
0
  6
Continuous
 62
     7
370
    30
100
AcDbCircle
 10
5.2473158452
 20
4.411142314
 30
0.0
 40
0.375
100
AcDbArc
 50
188.0229869069
 51
261.1501169016
  0
ARC
  5
2A8
330
1F
100
AcDbEntity
  8
0
  6
Continuous
 62
     7
370
    30
100
AcDbCircle
 10
4.9383696534
 20
4.3675963547
 30
0.0
 40
0.0630000000000011
100
AcDbArc
 50
116.7854683781
 51
188.0229869069
  0
ARC
  5
2A9
330
1F
100
AcDbEntity
  8
0
  6
Continuous
 62
     7
370
    30
100
AcDbCircle
 10
4.7973158452
 20
4.6470114995
 30
0.0
 40
0.2499999999999993
100
AcDbArc
 50
296.7854683781
 51
0.0
  0
LINE
  5
2AA
330
1F
100
AcDbEntity
  8
0
  6
Continuous
 62
     7
370
    30
100
AcDbLine
 10
5.0473158342
 20
4.6470115261
 30
0.0
 11
5.0473158342
 21
4.7648321183
 31
0.0
  0
ARC
  5
2AB
330
1F
100
AcDbEntity
  8
0
  6
Continuous
 62
     7
370
    30
100
AcDbCircle
 10
5.0973158452
 20
4.7648320868
 30
0.0
 40
0.0500000000000007
100
AcDbArc
 50
119.8355602232
 51
180.0
  0
ARC
  5
2AC
330
1F
100
AcDbEntity
  8
0
  6
Continuous
 62
     7
370
    30
100
AcDbCircle
 10
5.0473158452
 20
4.8520114995
 30
0.0
 40
0.0505000000000004
100
AcDbArc
 50
299.8355602232
 51
110.0
  0
LINE
  5
2AD
330
1F
100
AcDbEntity
  8
0
  6
Continuous
 62
     7
370
    30
100
AcDbLine
 10
5.0300438337
 20
4.899465943
 30
0.0
 11
5.0238874981
 21
4.9163804476
 31
0.0
  0
ARC
  5
2AE
330
1F
100
AcDbEntity
  8
0
  6
Continuous
 62
     7
370
    30
100
AcDbCircle
 10
5.0473158452
 20
4.8520114995
 30
0.0
 40
0.0685000000000004
100
AcDbArc
 50
299.8355602232
 51
110.0
  0
ARC
  5
2AF
330
1F
100
AcDbEntity
  8
0
  6
Continuous
 62
     7
370
    30
100
AcDbCircle
 10
8.4133158452
 20
4.7648320868
 30
0.0
 40
0.032
100
AcDbArc
 50
0.0
 51
60.1644397768
  0
LINE
  5
2B0
330
1F
100
AcDbEntity
  8
0
  6
Continuous
 62
     7
370
    30
100
AcDbLine
 10
8.4453158402
 20
4.6470115261
 30
0.0
 11
8.4453158402
 21
4.7648321183
 31
0.0
  0
ARC
  5
2B1
330
1F
100
AcDbEntity
  8
0
  6
Continuous
 62
     7
370
    30
100
AcDbCircle
 10
8.7133158452
 20
4.6470114995
 30
0.0
 40
0.2680000000000007
100
AcDbArc
 50
180.0
 51
243.2145316219
  0
ARC
  5
2B2
330
1F
100
AcDbEntity
  8
0
  6
Continuous
 62
     7
370
    30
100
AcDbCircle
 10
8.572262037
 20
4.3675963547
 30
0.0
 40
0.0449999999999995
100
AcDbArc
 50
351.9770130931
 51
63.2145316219
  0
ARC
  5
2B3
330
1F
100
AcDbEntity
  8
0
  6
Continuous
 62
     7
370
    30
100
AcDbCircle
 10
8.2633158452
 20
4.411142314
 30
0.0
 40
0.3569999999999998
100
AcDbArc
 50
278.8498830984
 51
351.9770130931
  0
ARC
  5
2B4
330
1F
100
AcDbEntity
  8
0
  6
Continuous
 62
     7
370
    30
100
AcDbCircle
 10
8.3133158452
 20
4.0900114995
 30
0.0
 40
0.0320000000000002
100
AcDbArc
 50
180.0
 51
278.8498830984
  0
LINE
  5
2B5
330
1F
100
AcDbEntity
  8
0
  6
Continuous
 62
     7
370
    30
100
AcDbLine
 10
8.2813158014
 20
4.2200114921
 30
0.0
 11
8.2813158014
 21
4.0900114922
 31
0.0
  0
LINE
  5
2B6
330
1F
100
AcDbEntity
  8
0
  6
Continuous
 62
     7
370
    30
100
AcDbLine
 10
8.2813158014
 20
4.2200114921
 30
0.0
 11
8.2633159027
 21
4.2200114921
 31
0.0
  0
LINE
  5
2B7
330
1F
100
AcDbEntity
  8
0
  6
Continuous
 62
     7
370
    30
100
AcDbLine
 10
8.2633159027
 20
4.2200114921
 30
0.0
 11
8.2633159027
 21
4.0900114922
 31
0.0
  0
ARC
  5
2B8
330
1F
100
AcDbEntity
  8
0
  6
Continuous
 62
     7
370
    30
100
AcDbCircle
 10
8.3133158452
 20
4.0900114995
 30
0.0
 40
0.0500000000000007
100
AcDbArc
 50
180.0
 51
278.8498830984
  0
ARC
  5
2B9
330
1F
100
AcDbEntity
  8
0
  6
Continuous
 62
     7
370
    30
100
AcDbCircle
 10
8.2633158452
 20
4.411142314
 30
0.0
 40
0.375
100
AcDbArc
 50
278.8498830984
 51
351.9770130931
  0
ARC
  5
2BA
330
1F
100
AcDbEntity
  8
0
  6
Continuous
 62
     7
370
    30
100
AcDbCircle
 10
8.572262037
 20
4.3675963547
 30
0.0
 40
0.0629999999999996
100
AcDbArc
 50
351.9770130931
 51
63.2145316219
  0
ARC
  5
2BB
330
1F
100
AcDbEntity
  8
0
  6
Continuous
 62
     7
370
    30
100
AcDbCircle
 10
8.7133158452
 20
4.6470114995
 30
0.0
 40
0.2500000000000004
100
AcDbArc
 50
180.0
 51
243.2145316219
  0
LINE
  5
2BC
330
1F
100
AcDbEntity
  8
0
  6
Continuous
 62
     7
370
    30
100
AcDbLine
 10
8.4633158856
 20
4.6470115261
 30
0.0
 11
8.4633158856
 21
4.7648321183
 31
0.0
  0
ARC
  5
2BD
330
1F
100
AcDbEntity
  8
0
  6
Continuous
 62
     7
370
    30
100
AcDbCircle
 10
8.4133158452
 20
4.7648320868
 30
0.0
 40
0.0500000000000007
100
AcDbArc
 50
0.0
 51
60.1644397768
  0
ARC
  5
2BE
330
1F
100
AcDbEntity
  8
0
  6
Continuous
 62
     7
370
    30
100
AcDbCircle
 10
8.4633158452
 20
4.8520114995
 30
0.0
 40
0.0505000000000007
100
AcDbArc
 50
70.0
 51
240.1644397768
  0
LINE
  5
2BF
330
1F
100
AcDbEntity
  8
0
  6
Continuous
 62
     7
370
    30
100
AcDbLine
 10
8.4805877394
 20
4.899465943
 30
0.0
 11
8.4867441483
 21
4.9163804476
 31
0.0
  0
ARC
  5
2C0
330
1F
100
AcDbEntity
  8
0
  6
Continuous
 62
     7
370
    30
100
AcDbCircle
 10
8.4633158452
 20
4.8520114995
 30
0.0
 40
0.0685000000000012
100
AcDbArc
 50
70.0
 51
240.1644397768
  0
ARC
  5
2C1
330
1F
100
AcDbEntity
  8
0
  6
Continuous
 62
     7
370
    30
100
AcDbCircle
 10
6.9133158452
 20
4.7648320868
 30
0.0
 40
0.0320000000000004
100
AcDbArc
 50
0.0
 51
60.1644397768
  0
LINE
  5
2C2
330
1F
100
AcDbEntity
  8
0
  6
Continuous
 62
     7
370
    30
100
AcDbLine
 10
6.9453158216
 20
4.6470115261
 30
0.0
 11
6.9453158216
 21
4.7648321183
 31
0.0
  0
ARC
  5
2C3
330
1F
100
AcDbEntity
  8
0
  6
Continuous
 62
     7
370
    30
100
AcDbCircle
 10
7.2133158452
 20
4.6470114995
 30
0.0
 40
0.2679999999999998
100
AcDbArc
 50
180.0
 51
243.2145316219
  0
ARC
  5
2C4
330
1F
100
AcDbEntity
  8
0
  6
Continuous
 62
     7
370
    30
100
AcDbCircle
 10
7.072262037
 20
4.3675963547
 30
0.0
 40
0.0450000000000003
100
AcDbArc
 50
351.9770130931
 51
63.2145316219
  0
ARC
  5
2C5
330
1F
100
AcDbEntity
  8
0
  6
Continuous
 62
     7
370
    30
100
AcDbCircle
 10
6.7633158452
 20
4.411142314
 30
0.0
 40
0.3570000000000009
100
AcDbArc
 50
278.8498830984
 51
351.9770130931
  0
ARC
  5
2C6
330
1F
100
AcDbEntity
  8
0
  6
Continuous
 62
     7
370
    30
100
AcDbCircle
 10
6.8133158452
 20
4.0900114995
 30
0.0
 40
0.0320000000000006
100
AcDbArc
 50
180.0
 51
278.8498830984
  0
LINE
  5
2C7
330
1F
100
AcDbEntity
  8
0
  6
Continuous
 62
     7
370
    30
100
AcDbLine
 10
6.7813158562
 20
4.2200114921
 30
0.0
 11
6.7813158562
 21
4.0900114922
 31
0.0
  0
LINE
  5
2C8
330
1F
100
AcDbEntity
  8
0
  6
Continuous
 62
     7
370
    30
100
AcDbLine
 10
6.7813158562
 20
4.2200114921
 30
0.0
 11
6.7633158108
 21
4.2200114921
 31
0.0
  0
LINE
  5
2C9
330
1F
100
AcDbEntity
  8
0
  6
Continuous
 62
     7
370
    30
100
AcDbLine
 10
6.7633158108
 20
4.2200114921
 30
0.0
 11
6.7633158108
 21
4.0900114922
 31
0.0
  0
ARC
  5
2CA
330
1F
100
AcDbEntity
  8
0
  6
Continuous
 62
     7
370
    30
100
AcDbCircle
 10
6.8133158452
 20
4.0900114995
 30
0.0
 40
0.0500000000000004
100
AcDbArc
 50
180.0
 51
278.8498830984
  0
ARC
  5
2CB
330
1F
100
AcDbEntity
  8
0
  6
Continuous
 62
     7
370
    30
100
AcDbCircle
 10
6.7633158452
 20
4.411142314
 30
0.0
 40
0.375000000000001
100
AcDbArc
 50
278.8498830984
 51
351.9770130931
  0
ARC
  5
2CC
330
1F
100
AcDbEntity
  8
0
  6
Continuous
 62
     7
370
    30
100
AcDbCircle
 10
7.072262037
 20
4.3675963547
 30
0.0
 40
0.0629999999999999
100
AcDbArc
 50
351.9770130931
 51
63.2145316219
  0
ARC
  5
2CD
330
1F
100
AcDbEntity
  8
0
  6
Continuous
 62
     7
370
    30
100
AcDbCircle
 10
7.2133158452
 20
4.6470114995
 30
0.0
 40
0.25
100
AcDbArc
 50
180.0
 51
243.2145316219
  0
LINE
  5
2CE
330
1F
100
AcDbEntity
  8
0
  6
Continuous
 62
     7
370
    30
100
AcDbLine
 10
6.963315867
 20
4.6470115261
 30
0.0
 11
6.963315867
 21
4.7648321183
 31
0.0
  0
ARC
  5
2CF
330
1F
100
AcDbEntity
  8
0
  6
Continuous
 62
     7
370
    30
100
AcDbCircle
 10
6.9133158452
 20
4.7648320868
 30
0.0
 40
0.0499999999999998
100
AcDbArc
 50
0.0
 51
60.1644397768
  0
ARC
  5
2D0
330
1F
100
AcDbEntity
  8
0
  6
Continuous
 62
     7
370
    30
100
AcDbCircle
 10
6.9633158452
 20
4.8520114995
 30
0.0
 40
0.0505000000000002
100
AcDbArc
 50
70.0
 51
240.1644397768
  0
LINE
  5
2D1
330
1F
100
AcDbEntity
  8
0
  6
Continuous
 62
     7
370
    30
100
AcDbLine
 10
6.9805878675
 20
4.899465943
 30
0.0
 11
6.9867442031
 21
4.9163804476
 31
0.0
  0
ARC
  5
2D2
330
1F
100
AcDbEntity
  8
0
  6
Continuous
 62
     7
370
    30
100
AcDbCircle
 10
6.9633158452
 20
4.8520114995
 30
0.0
 40
0.0684999999999999
100
AcDbArc
 50
70.0
 51
240.1644397768
  0
ARC
  5
2D3
330
1F
100
AcDbEntity
  8
0
  6
Continuous
 62
     7
370
    30
100
AcDbCircle
 10
3.9133158452
 20
4.7648320868
 30
0.0
 40
0.0320000000000002
100
AcDbArc
 50
0.0
 51
60.1644397768
  0
LINE
  5
2D4
330
1F
100
AcDbEntity
  8
0
  6
Continuous
 62
     7
370
    30
100
AcDbLine
 10
3.9453157846
 20
4.6470115261
 30
0.0
 11
3.9453157846
 21
4.7648321183
 31
0.0
  0
ARC
  5
2D5
330
1F
100
AcDbEntity
  8
0
  6
Continuous
 62
     7
370
    30
100
AcDbCircle
 10
4.2133158452
 20
4.6470114995
 30
0.0
 40
0.268
100
AcDbArc
 50
180.0
 51
243.2145316219
  0
ARC
  5
2D6
330
1F
100
AcDbEntity
  8
0
  6
Continuous
 62
     7
370
    30
100
AcDbCircle
 10
4.072262037
 20
4.3675963547
 30
0.0
 40
0.0450000000000003
100
AcDbArc
 50
351.9770130931
 51
63.2145316219
  0
ARC
  5
2D7
330
1F
100
AcDbEntity
  8
0
  6
Continuous
 62
     7
370
    30
100
AcDbCircle
 10
3.7633158452
 20
4.411142314
 30
0.0
 40
0.3569999999999998
100
AcDbArc
 50
278.8498830984
 51
351.9770130931
  0
ARC
  5
2D8
330
1F
100
AcDbEntity
  8
0
  6
Continuous
 62
     7
370
    30
100
AcDbCircle
 10
3.8133158452
 20
4.0900114995
 30
0.0
 40
0.0320000000000004
100
AcDbArc
 50
180.0
 51
278.8498830984
  0
LINE
  5
2D9
330
1F
100
AcDbEntity
  8
0
  6
Continuous
 62
     7
370
    30
100
AcDbLine
 10
3.7813158924
 20
4.2200114921
 30
0.0
 11
3.7813158924
 21
4.0900114922
 31
0.0
  0
LINE
  5
2DA
330
1F
100
AcDbEntity
  8
0
  6
Continuous
 62
     7
370
    30
100
AcDbLine
 10
3.7813158924
 20
4.2200114921
 30
0.0
 11
3.763315847
 21
4.2200114921
 31
0.0
  0
LINE
  5
2DB
330
1F
100
AcDbEntity
  8
0
  6
Continuous
 62
     7
370
    30
100
AcDbLine
 10
3.763315847
 20
4.2200114921
 30
0.0
 11
3.763315847
 21
4.0900114922
 31
0.0
  0
ARC
  5
2DC
330
1F
100
AcDbEntity
  8
0
  6
Continuous
 62
     7
370
    30
100
AcDbCircle
 10
3.8133158452
 20
4.0900114995
 30
0.0
 40
0.0500000000000003
100
AcDbArc
 50
180.0
 51
278.8498830984
  0
ARC
  5
2DD
330
1F
100
AcDbEntity
  8
0
  6
Continuous
 62
     7
370
    30
100
AcDbCircle
 10
3.7633158452
 20
4.411142314
 30
0.0
 40
0.3749999999999996
100
AcDbArc
 50
278.8498830984
 51
351.9770130931
  0
ARC
  5
2DE
330
1F
100
AcDbEntity
  8
0
  6
Continuous
 62
     7
370
    30
100
AcDbCircle
 10
4.072262037
 20
4.3675963547
 30
0.0
 40
0.0630000000000011
100
AcDbArc
 50
351.9770130931
 51
63.2145316219
  0
ARC
  5
2DF
330
1F
100
AcDbEntity
  8
0
  6
Continuous
 62
     7
370
    30
100
AcDbCircle
 10
4.2133158452
 20
4.6470114995
 30
0.0
 40
0.2499999999999996
100
AcDbArc
 50
180.0
 51
243.2145316219
  0
LINE
  5
2E0
330
1F
100
AcDbEntity
  8
0
  6
Continuous
 62
     7
370
    30
100
AcDbLine
 10
3.96331583
 20
4.6470115261
 30
0.0
 11
3.96331583
 21
4.7648321183
 31
0.0
  0
ARC
  5
2E1
330
1F
100
AcDbEntity
  8
0
  6
Continuous
 62
     7
370
    30
100
AcDbCircle
 10
3.9133158452
 20
4.7648320868
 30
0.0
 40
0.0500000000000003
100
AcDbArc
 50
0.0
 51
60.1644397768
  0
ARC
  5
2E2
330
1F
100
AcDbEntity
  8
0
  6
Continuous
 62
     7
370
    30
100
AcDbCircle
 10
3.9633158452
 20
4.8520114995
 30
0.0
 40
0.0505000000000004
100
AcDbArc
 50
70.0
 51
240.1644397768
  0
LINE
  5
2E3
330
1F
100
AcDbEntity
  8
0
  6
Continuous
 62
     7
370
    30
100
AcDbLine
 10
3.9805878304
 20
4.899465943
 30
0.0
 11
3.9867442393
 21
4.9163804476
 31
0.0
  0
ARC
  5
2E4
330
1F
100
AcDbEntity
  8
0
  6
Continuous
 62
     7
370
    30
100
AcDbCircle
 10
3.9633158452
 20
4.8520114995
 30
0.0
 40
0.0684999999999999
100
AcDbArc
 50
70.0
 51
240.1644397768
  0
ARC
  5
2E5
330
1F
100
AcDbEntity
  8
0
  6
Continuous
 62
     7
370
    30
100
AcDbCircle
 10
3.2973158452
 20
4.6470114995
 30
0.0
 40
0.268
100
AcDbArc
 50
296.7854683781
 51
0.0
  0
ARC
  5
2E6
330
1F
100
AcDbEntity
  8
0
  6
Continuous
 62
     7
370
    30
100
AcDbCircle
 10
3.4383696534
 20
4.3675963547
 30
0.0
 40
0.0449999999999995
100
AcDbArc
 50
116.7854683781
 51
188.0229869069
  0
ARC
  5
2E7
330
1F
100
AcDbEntity
  8
0
  6
Continuous
 62
     7
370
    30
100
AcDbCircle
 10
3.7473158452
 20
4.411142314
 30
0.0
 40
0.3569999999999999
100
AcDbArc
 50
188.0229869069
 51
261.1501169016
  0
ARC
  5
2E8
330
1F
100
AcDbEntity
  8
0
  6
Continuous
 62
     7
370
    30
100
AcDbCircle
 10
3.6973158452
 20
4.0900114995
 30
0.0
 40
0.0320000000000005
100
AcDbArc
 50
261.1501169016
 51
0.0
  0
LINE
  5
2E9
330
1F
100
AcDbEntity
  8
0
  6
Continuous
 62
     7
370
    30
100
AcDbLine
 10
3.7293158265
 20
4.2200114921
 30
0.0
 11
3.7293158265
 21
4.0900114922
 31
0.0
  0
LINE
  5
2EA
330
1F
100
AcDbEntity
  8
0
  6
Continuous
 62
     7
370
    30
100
AcDbLine
 10
3.7293158265
 20
4.2200114921
 30
0.0
 11
3.7473158719
 21
4.2200114921
 31
0.0
  0
LINE
  5
2EB
330
1F
100
AcDbEntity
  8
0
  6
Continuous
 62
     7
370
    30
100
AcDbLine
 10
3.7473158719
 20
4.2200114921
 30
0.0
 11
3.7473158719
 21
4.0900114922
 31
0.0
  0
ARC
  5
2EC
330
1F
100
AcDbEntity
  8
0
  6
Continuous
 62
     7
370
    30
100
AcDbCircle
 10
3.6973158452
 20
4.0900114995
 30
0.0
 40
0.0499999999999998
100
AcDbArc
 50
261.1501169016
 51
0.0
  0
ARC
  5
2ED
330
1F
100
AcDbEntity
  8
0
  6
Continuous
 62
     7
370
    30
100
AcDbCircle
 10
3.7473158452
 20
4.411142314
 30
0.0
 40
0.3750000000000004
100
AcDbArc
 50
188.0229869069
 51
261.1501169016
  0
ARC
  5
2EE
330
1F
100
AcDbEntity
  8
0
  6
Continuous
 62
     7
370
    30
100
AcDbCircle
 10
3.4383696534
 20
4.3675963547
 30
0.0
 40
0.0630000000000001
100
AcDbArc
 50
116.7854683781
 51
188.0229869069
  0
ARC
  5
2EF
330
1F
100
AcDbEntity
  8
0
  6
Continuous
 62
     7
370
    30
100
AcDbCircle
 10
3.2973158452
 20
4.6470114995
 30
0.0
 40
0.25
100
AcDbArc
 50
296.7854683781
 51
0.0
  0
LINE
  5
2F0
330
1F
100
AcDbEntity
  8
0
  6
Continuous
 62
     7
370
    30
100
AcDbLine
 10
3.5473157423
 20
4.6470115261
 30
0.0
 11
3.5473157423
 21
4.7648321183
 31
0.0
  0
ARC
  5
2F1
330
1F
100
AcDbEntity
  8
0
  6
Continuous
 62
     7
370
    30
100
AcDbCircle
 10
3.5973158452
 20
4.7648320868
 30
0.0
 40
0.032
100
AcDbArc
 50
119.8355602232
 51
180.0
  0
LINE
  5
2F2
330
1F
100
AcDbEntity
  8
0
  6
Continuous
 62
     7
370
    30
100
AcDbLine
 10
3.5653157877
 20
4.6470115261
 30
0.0
 11
3.5653157877
 21
4.7648321183
 31
0.0
  0
ARC
  5
2F3
330
1F
100
AcDbEntity
  8
0
  6
Continuous
 62
     7
370
    30
100
AcDbCircle
 10
3.5973158452
 20
4.7648320868
 30
0.0
 40
0.0499999999999998
100
AcDbArc
 50
119.8355602232
 51
180.0
  0
ARC
  5
2F4
330
1F
100
AcDbEntity
  8
0
  6
Continuous
 62
     7
370
    30
100
AcDbCircle
 10
3.5473158452
 20
4.8520114995
 30
0.0
 40
0.0505000000000004
100
AcDbArc
 50
299.8355602232
 51
110.0
  0
LINE
  5
2F5
330
1F
100
AcDbEntity
  8
0
  6
Continuous
 62
     7
370
    30
100
AcDbLine
 10
3.5300438885
 20
4.899465943
 30
0.0
 11
3.5238874796
 21
4.9163804476
 31
0.0
  0
ARC
  5
2F6
330
1F
100
AcDbEntity
  8
0
  6
Continuous
 62
     7
370
    30
100
AcDbCircle
 10
3.5473158452
 20
4.8520114995
 30
0.0
 40
0.0685000000000005
100
AcDbArc
 50
299.8355602232
 51
110.0
  0
ARC
  5
2F7
330
1F
100
AcDbEntity
  8
0
  6
Continuous
 62
     7
370
    30
100
AcDbCircle
 10
8.0973158452
 20
4.7648320868
 30
0.0
 40
0.0320000000000009
100
AcDbArc
 50
119.8355602232
 51
180.0
  0
ARC
  5
2F8
330
1F
100
AcDbEntity
  8
0
  6
Continuous
 62
     7
370
    30
100
AcDbCircle
 10
7.7973158452
 20
4.6470114995
 30
0.0
 40
0.2680000000000007
100
AcDbArc
 50
296.7854683781
 51
0.0
  0
ARC
  5
2F9
330
1F
100
AcDbEntity
  8
0
  6
Continuous
 62
     7
370
    30
100
AcDbCircle
 10
7.9383696534
 20
4.3675963547
 30
0.0
 40
0.0450000000000003
100
AcDbArc
 50
116.7854683781
 51
188.0229869069
  0
ARC
  5
2FA
330
1F
100
AcDbEntity
  8
0
  6
Continuous
 62
     7
370
    30
100
AcDbCircle
 10
8.2473158452
 20
4.411142314
 30
0.0
 40
0.3570000000000006
100
AcDbArc
 50
188.0229869069
 51
261.1501169016
  0
ARC
  5
2FB
330
1F
100
AcDbEntity
  8
0
  6
Continuous
 62
     7
370
    30
100
AcDbCircle
 10
8.1973158452
 20
4.0900114995
 30
0.0
 40
0.0320000000000002
100
AcDbArc
 50
261.1501169016
 51
0.0
  0
LINE
  5
2FC
330
1F
100
AcDbEntity
  8
0
  6
Continuous
 62
     7
370
    30
100
AcDbLine
 10
8.2293158821
 20
4.2200114921
 30
0.0
 11
8.2293158821
 21
4.0900114922
 31
0.0
  0
LINE
  5
2FD
330
1F
100
AcDbEntity
  8
0
  6
Continuous
 62
     7
370
    30
100
AcDbLine
 10
8.2473157808
 20
4.2200114921
 30
0.0
 11
8.2473157808
 21
4.0900114922
 31
0.0
  0
ARC
  5
2FE
330
1F
100
AcDbEntity
  8
0
  6
Continuous
 62
     7
370
    30
100
AcDbCircle
 10
8.1973158452
 20
4.0900114995
 30
0.0
 40
0.0500000000000007
100
AcDbArc
 50
261.1501169016
 51
0.0
  0
ARC
  5
2FF
330
1F
100
AcDbEntity
  8
0
  6
Continuous
 62
     7
370
    30
100
AcDbCircle
 10
8.2473158452
 20
4.411142314
 30
0.0
 40
0.3750000000000001
100
AcDbArc
 50
188.0229869069
 51
261.1501169016
  0
ARC
  5
300
330
1F
100
AcDbEntity
  8
0
  6
Continuous
 62
     7
370
    30
100
AcDbCircle
 10
7.9383696534
 20
4.3675963547
 30
0.0
 40
0.0630000000000003
100
AcDbArc
 50
116.7854683781
 51
188.0229869069
  0
ARC
  5
301
330
1F
100
AcDbEntity
  8
0
  6
Continuous
 62
     7
370
    30
100
AcDbCircle
 10
7.7973158452
 20
4.6470114995
 30
0.0
 40
0.25
100
AcDbArc
 50
296.7854683781
 51
0.0
  0
LINE
  5
302
330
1F
100
AcDbEntity
  8
0
  6
Continuous
 62
     7
370
    30
100
AcDbLine
 10
8.0473157979
 20
4.6470115261
 30
0.0
 11
8.0473157979
 21
4.7648321183
 31
0.0
  0
ARC
  5
303
330
1F
100
AcDbEntity
  8
0
  6
Continuous
 62
     7
370
    30
100
AcDbCircle
 10
8.0973158452
 20
4.7648320868
 30
0.0
 40
0.0500000000000007
100
AcDbArc
 50
119.8355602232
 51
180.0
  0
ARC
  5
304
330
1F
100
AcDbEntity
  8
0
  6
Continuous
 62
     7
370
    30
100
AcDbCircle
 10
8.0473158452
 20
4.8520114995
 30
0.0
 40
0.0684999999999995
100
AcDbArc
 50
299.8355602232
 51
110.0
  0
ARC
  5
305
330
1F
100
AcDbEntity
  8
0
  6
Continuous
 62
     7
370
    30
100
AcDbCircle
 10
8.0473158452
 20
4.8520114995
 30
0.0
 40
0.0505000000000007
100
AcDbArc
 50
299.8355602232
 51
110.0
  0
LINE
  5
306
330
1F
100
AcDbEntity
  8
0
  6
Continuous
 62
     7
370
    30
100
AcDbLine
 10
8.0300437974
 20
4.899465943
 30
0.0
 11
8.0238875352
 21
4.9163804476
 31
0.0
  0
LINE
  5
307
330
1F
100
AcDbEntity
  8
0
  6
Continuous
 62
     7
370
    30
100
AcDbLine
 10
8.0653158433
 20
4.6470115261
 30
0.0
 11
8.0653158433
 21
4.7648321183
 31
0.0
  0
LINE
  5
308
330
1F
100
AcDbEntity
  8
0
  6
Continuous
 62
     7
370
    30
100
AcDbLine
 10
8.2293158821
 20
4.2200114921
 30
0.0
 11
8.2473157808
 21
4.2200114921
 31
0.0
  0
ARC
  5
309
330
1F
100
AcDbEntity
  8
0
  6
Continuous
 62
     7
370
    30
100
AcDbCircle
 10
6.5973158452
 20
4.7648320868
 30
0.0
 40
0.032
100
AcDbArc
 50
119.8355602232
 51
180.0
  0
ARC
  5
30A
330
1F
100
AcDbEntity
  8
0
  6
Continuous
 62
     7
370
    30
100
AcDbCircle
 10
6.2973158452
 20
4.6470114995
 30
0.0
 40
0.2679999999999996
100
AcDbArc
 50
296.7854683781
 51
0.0
  0
ARC
  5
30B
330
1F
100
AcDbEntity
  8
0
  6
Continuous
 62
     7
370
    30
100
AcDbCircle
 10
6.4383696534
 20
4.3675963547
 30
0.0
 40
0.0450000000000003
100
AcDbArc
 50
116.7854683781
 51
188.0229869069
  0
ARC
  5
30C
330
1F
100
AcDbEntity
  8
0
  6
Continuous
 62
     7
370
    30
100
AcDbCircle
 10
6.7473158452
 20
4.411142314
 30
0.0
 40
0.3569999999999999
100
AcDbArc
 50
188.0229869069
 51
261.1501169016
  0
ARC
  5
30D
330
1F
100
AcDbEntity
  8
0
  6
Continuous
 62
     7
370
    30
100
AcDbCircle
 10
6.6973158452
 20
4.0900114995
 30
0.0
 40
0.032
100
AcDbArc
 50
261.1501169016
 51
0.0
  0
LINE
  5
30E
330
1F
100
AcDbEntity
  8
0
  6
Continuous
 62
     7
370
    30
100
AcDbLine
 10
6.7293158636
 20
4.2200114921
 30
0.0
 11
6.7293158636
 21
4.0900114922
 31
0.0
  0
LINE
  5
30F
330
1F
100
AcDbEntity
  8
0
  6
Continuous
 62
     7
370
    30
100
AcDbLine
 10
6.7293158636
 20
4.2200114921
 30
0.0
 11
6.7473158356
 21
4.2200114921
 31
0.0
  0
LINE
  5
310
330
1F
100
AcDbEntity
  8
0
  6
Continuous
 62
     7
370
    30
100
AcDbLine
 10
6.7473158356
 20
4.2200114921
 30
0.0
 11
6.7473158356
 21
4.0900114922
 31
0.0
  0
ARC
  5
311
330
1F
100
AcDbEntity
  8
0
  6
Continuous
 62
     7
370
    30
100
AcDbCircle
 10
6.6973158452
 20
4.0900114995
 30
0.0
 40
0.0500000000000007
100
AcDbArc
 50
261.1501169016
 51
0.0
  0
ARC
  5
312
330
1F
100
AcDbEntity
  8
0
  6
Continuous
 62
     7
370
    30
100
AcDbCircle
 10
6.7473158452
 20
4.411142314
 30
0.0
 40
0.3750000000000001
100
AcDbArc
 50
188.0229869069
 51
261.1501169016
  0
ARC
  5
313
330
1F
100
AcDbEntity
  8
0
  6
Continuous
 62
     7
370
    30
100
AcDbCircle
 10
6.4383696534
 20
4.3675963547
 30
0.0
 40
0.0630000000000007
100
AcDbArc
 50
116.7854683781
 51
188.0229869069
  0
ARC
  5
314
330
1F
100
AcDbEntity
  8
0
  6
Continuous
 62
     7
370
    30
100
AcDbCircle
 10
6.2973158452
 20
4.6470114995
 30
0.0
 40
0.2499999999999993
100
AcDbArc
 50
296.7854683781
 51
0.0
  0
LINE
  5
315
330
1F
100
AcDbEntity
  8
0
  6
Continuous
 62
     7
370
    30
100
AcDbLine
 10
6.5473158527
 20
4.6470115261
 30
0.0
 11
6.5473158527
 21
4.7648321183
 31
0.0
  0
ARC
  5
316
330
1F
100
AcDbEntity
  8
0
  6
Continuous
 62
     7
370
    30
100
AcDbCircle
 10
6.5973158452
 20
4.7648320868
 30
0.0
 40
0.0499999999999998
100
AcDbArc
 50
119.8355602232
 51
180.0
  0
ARC
  5
317
330
1F
100
AcDbEntity
  8
0
  6
Continuous
 62
     7
370
    30
100
AcDbCircle
 10
6.5473158452
 20
4.8520114995
 30
0.0
 40
0.0505000000000002
100
AcDbArc
 50
299.8355602232
 51
110.0
  0
LINE
  5
318
330
1F
100
AcDbEntity
  8
0
  6
Continuous
 62
     7
370
    30
100
AcDbLine
 10
6.5300438156
 20
4.899465943
 30
0.0
 11
6.52388748
 21
4.9163804476
 31
0.0
  0
ARC
  5
319
330
1F
100
AcDbEntity
  8
0
  6
Continuous
 62
     7
370
    30
100
AcDbCircle
 10
6.5473158452
 20
4.8520114995
 30
0.0
 40
0.0684999999999999
100
AcDbArc
 50
299.8355602232
 51
110.0
  0
LINE
  5
31A
330
1F
100
AcDbEntity
  8
0
  6
Continuous
 62
     7
370
    30
100
AcDbLine
 10
6.5653158614
 20
4.6470115261
 30
0.0
 11
6.5653158614
 21
4.7648321183
 31
0.0
  0
LINE
  5
31B
330
1F
100
AcDbEntity
  8
0
  6
Continuous
 62
     7
370
    30
100
AcDbLine
 10
6.6817460331
 20
4.9900114704
 30
0.0
 11
6.5673158583
 21
4.9900114704
 31
0.0
  0
LINE
  5
31C
330
1F
100
AcDbEntity
  8
0
  6
Continuous
 62
     7
370
    30
100
AcDbLine
 10
6.661385635
 20
4.9782564195
 30
0.0
 11
6.6817460331
 21
4.9900114704
 31
0.0
  0
LINE
  5
31D
330
1F
100
AcDbEntity
  8
0
  6
Continuous
 62
     7
370
    30
100
AcDbLine
 10
6.661385635
 20
4.9723999405
 30
0.0
 11
6.661385635
 21
4.9782564195
 31
0.0
  0
LINE
  5
31E
330
1F
100
AcDbEntity
  8
0
  6
Continuous
 62
     7
370
    30
100
AcDbLine
 10
6.6817460331
 20
4.9606448896
 30
0.0
 11
6.661385635
 21
4.9723999405
 31
0.0
  0
LINE
  5
31F
330
1F
100
AcDbEntity
  8
0
  6
Continuous
 62
     7
370
    30
100
AcDbLine
 10
6.6817460331
 20
4.9547880439
 30
0.0
 11
6.6817460331
 21
4.9606448896
 31
0.0
  0
LINE
  5
320
330
1F
100
AcDbEntity
  8
0
  6
Continuous
 62
     7
370
    30
100
AcDbLine
 10
6.661385635
 20
4.9430329931
 30
0.0
 11
6.6817460331
 21
4.9547880439
 31
0.0
  0
LINE
  5
321
330
1F
100
AcDbEntity
  8
0
  6
Continuous
 62
     7
370
    30
100
AcDbLine
 10
6.661385635
 20
4.9371765141
 30
0.0
 11
6.661385635
 21
4.9430329931
 31
0.0
  0
LINE
  5
322
330
1F
100
AcDbEntity
  8
0
  6
Continuous
 62
     7
370
    30
100
AcDbLine
 10
6.6817460331
 20
4.9195646175
 30
0.0
 11
6.6817460331
 21
4.9254214632
 31
0.0
  0
LINE
  5
323
330
1F
100
AcDbEntity
  8
0
  6
Continuous
 62
     7
370
    30
100
AcDbLine
 10
6.661385635
 20
4.9078095666
 30
0.0
 11
6.6817460331
 21
4.9195646175
 31
0.0
  0
LINE
  5
324
330
1F
100
AcDbEntity
  8
0
  6
Continuous
 62
     7
370
    30
100
AcDbLine
 10
6.661385635
 20
4.9019530876
 30
0.0
 11
6.661385635
 21
4.9078095666
 31
0.0
  0
LINE
  5
325
330
1F
100
AcDbEntity
  8
0
  6
Continuous
 62
     7
370
    30
100
AcDbLine
 10
6.6817460331
 20
4.8901980368
 30
0.0
 11
6.661385635
 21
4.9019530876
 31
0.0
  0
LINE
  5
326
330
1F
100
AcDbEntity
  8
0
  6
Continuous
 62
     7
370
    30
100
AcDbLine
 10
6.6817460331
 20
4.8843412644
 30
0.0
 11
6.6817460331
 21
4.8901980368
 31
0.0
  0
LINE
  5
327
330
1F
100
AcDbEntity
  8
0
  6
Continuous
 62
     7
370
    30
100
AcDbLine
 10
6.661385635
 20
4.8725861402
 30
0.0
 11
6.6817460331
 21
4.8843412644
 31
0.0
  0
LINE
  5
328
330
1F
100
AcDbEntity
  8
0
  6
Continuous
 62
     7
370
    30
100
AcDbLine
 10
6.661385635
 20
4.8667296612
 30
0.0
 11
6.661385635
 21
4.8725861402
 31
0.0
  0
LINE
  5
329
330
1F
100
AcDbEntity
  8
0
  6
Continuous
 62
     7
370
    30
100
AcDbLine
 10
6.6817460331
 20
4.8549746103
 30
0.0
 11
6.661385635
 21
4.8667296612
 31
0.0
  0
LINE
  5
32A
330
1F
100
AcDbEntity
  8
0
  6
Continuous
 62
     7
370
    30
100
AcDbLine
 10
6.6817460331
 20
4.849117838
 30
0.0
 11
6.6817460331
 21
4.8549746103
 31
0.0
  0
LINE
  5
32B
330
1F
100
AcDbEntity
  8
0
  6
Continuous
 62
     7
370
    30
100
AcDbLine
 10
6.661385635
 20
4.8373627138
 30
0.0
 11
6.6817460331
 21
4.849117838
 31
0.0
  0
LINE
  5
32C
330
1F
100
AcDbEntity
  8
0
  6
Continuous
 62
     7
370
    30
100
AcDbLine
 10
6.661385635
 20
4.8315062348
 30
0.0
 11
6.661385635
 21
4.8373627138
 31
0.0
  0
LINE
  5
32D
330
1F
100
AcDbEntity
  8
0
  6
Continuous
 62
     7
370
    30
100
AcDbLine
 10
6.6817460331
 20
4.8197511839
 30
0.0
 11
6.661385635
 21
4.8315062348
 31
0.0
  0
LINE
  5
32E
330
1F
100
AcDbEntity
  8
0
  6
Continuous
 62
     7
370
    30
100
AcDbLine
 10
6.6817460331
 20
4.8138944116
 30
0.0
 11
6.6817460331
 21
4.8197511839
 31
0.0
  0
LINE
  5
32F
330
1F
100
AcDbEntity
  8
0
  6
Continuous
 62
     7
370
    30
100
AcDbLine
 10
6.661385635
 20
4.8021392874
 30
0.0
 11
6.6817460331
 21
4.8138944116
 31
0.0
  0
LINE
  5
330
330
1F
100
AcDbEntity
  8
0
  6
Continuous
 62
     7
370
    30
100
AcDbLine
 10
6.661385635
 20
4.7962828083
 30
0.0
 11
6.661385635
 21
4.8021392874
 31
0.0
  0
LINE
  5
331
330
1F
100
AcDbEntity
  8
0
  6
Continuous
 62
     7
370
    30
100
AcDbLine
 10
6.6817460331
 20
4.7845277575
 30
0.0
 11
6.661385635
 21
4.7962828083
 31
0.0
  0
LINE
  5
332
330
1F
100
AcDbEntity
  8
0
  6
Continuous
 62
     7
370
    30
100
AcDbLine
 10
6.6817460331
 20
4.7786709851
 30
0.0
 11
6.6817460331
 21
4.7845277575
 31
0.0
  0
LINE
  5
333
330
1F
100
AcDbEntity
  8
0
  6
Continuous
 62
     7
370
    30
100
AcDbLine
 10
6.661385635
 20
4.7669159343
 30
0.0
 11
6.6817460331
 21
4.7786709851
 31
0.0
  0
LINE
  5
334
330
1F
100
AcDbEntity
  8
0
  6
Continuous
 62
     7
370
    30
100
AcDbLine
 10
6.661385635
 20
4.7610593819
 30
0.0
 11
6.661385635
 21
4.7669159343
 31
0.0
  0
LINE
  5
335
330
1F
100
AcDbEntity
  8
0
  6
Continuous
 62
     7
370
    30
100
AcDbLine
 10
6.6817468397
 20
4.749303891
 30
0.0
 11
6.661385635
 21
4.7610593819
 31
0.0
  0
LINE
  5
336
330
1F
100
AcDbEntity
  8
0
  6
Continuous
 62
     7
370
    30
100
AcDbLine
 10
6.6817468397
 20
4.7434387588
 30
0.0
 11
6.6817468397
 21
4.749303891
 31
0.0
  0
LINE
  5
337
330
1F
100
AcDbEntity
  8
0
  6
Continuous
 62
     7
370
    30
100
AcDbLine
 10
6.6703717978
 20
4.7368713947
 30
0.0
 11
6.6817468397
 21
4.7434387588
 31
0.0
  0
ARC
  5
338
330
1F
100
AcDbEntity
  8
0
  6
Continuous
 62
     7
370
    30
100
AcDbCircle
 10
6.6733158452
 20
4.7060114995
 30
0.0
 40
0.0310000000000006
100
AcDbArc
 50
95.4495226951
 51
270.0
  0
LINE
  5
339
330
1F
100
AcDbEntity
  8
0
  6
Continuous
 62
     7
370
    30
100
AcDbLine
 10
6.8373158426
 20
4.6750114826
 30
0.0
 11
6.6733158771
 21
4.6750114826
 31
0.0
  0
ARC
  5
33A
330
1F
100
AcDbEntity
  8
0
  6
Continuous
 62
     7
370
    30
100
AcDbCircle
 10
6.8373158452
 20
4.7060114995
 30
0.0
 40
0.0310000000000004
100
AcDbArc
 50
270.0
 51
75.2623825484
  0
ARC
  5
33B
330
1F
100
AcDbEntity
  8
0
  6
Continuous
 62
     7
370
    30
100
AcDbCircle
 10
6.8543487802
 20
4.7400335217
 30
0.0
 40
0.0100000000000086
100
AcDbArc
 50
165.3098749059
 51
203.8403348298
  0
LINE
  5
33C
330
1F
100
AcDbEntity
  8
0
  6
Continuous
 62
     7
370
    30
100
AcDbLine
 10
6.8492768844
 20
4.7452259448
 30
0.0
 11
6.8446756376
 21
4.7425694022
 31
0.0
  0
LINE
  5
33D
330
1F
100
AcDbEntity
  8
0
  6
Continuous
 62
     7
370
    30
100
AcDbLine
 10
6.8492768844
 20
4.7510824238
 30
0.0
 11
6.8492768844
 21
4.7452259448
 31
0.0
  0
LINE
  5
33E
330
1F
100
AcDbEntity
  8
0
  6
Continuous
 62
     7
370
    30
100
AcDbLine
 10
6.8289165596
 20
4.762837548
 30
0.0
 11
6.8492768844
 21
4.7510824238
 31
0.0
  0
LINE
  5
33F
330
1F
100
AcDbEntity
  8
0
  6
Continuous
 62
     7
370
    30
100
AcDbLine
 10
6.8289165596
 20
4.7686943204
 30
0.0
 11
6.8289165596
 21
4.762837548
 31
0.0
  0
LINE
  5
340
330
1F
100
AcDbEntity
  8
0
  6
Continuous
 62
     7
370
    30
100
AcDbLine
 10
6.8492768844
 20
4.7804493713
 30
0.0
 11
6.8289165596
 21
4.7686943204
 31
0.0
  0
LINE
  5
341
330
1F
100
AcDbEntity
  8
0
  6
Continuous
 62
     7
370
    30
100
AcDbLine
 10
6.8492768844
 20
4.7863058503
 30
0.0
 11
6.8492768844
 21
4.7804493713
 31
0.0
  0
LINE
  5
342
330
1F
100
AcDbEntity
  8
0
  6
Continuous
 62
     7
370
    30
100
AcDbLine
 10
6.8289165596
 20
4.7980609011
 30
0.0
 11
6.8492768844
 21
4.7863058503
 31
0.0
  0
LINE
  5
343
330
1F
100
AcDbEntity
  8
0
  6
Continuous
 62
     7
370
    30
100
AcDbLine
 10
6.8289165596
 20
4.8039177468
 30
0.0
 11
6.8289165596
 21
4.7980609011
 31
0.0
  0
LINE
  5
344
330
1F
100
AcDbEntity
  8
0
  6
Continuous
 62
     7
370
    30
100
AcDbLine
 10
6.8492768844
 20
4.8215292767
 30
0.0
 11
6.8492768844
 21
4.8156727977
 31
0.0
  0
LINE
  5
345
330
1F
100
AcDbEntity
  8
0
  6
Continuous
 62
     7
370
    30
100
AcDbLine
 10
6.8289165596
 20
4.8332843276
 30
0.0
 11
6.8492768844
 21
4.8215292767
 31
0.0
  0
LINE
  5
346
330
1F
100
AcDbEntity
  8
0
  6
Continuous
 62
     7
370
    30
100
AcDbLine
 10
6.8289165596
 20
4.8391411732
 30
0.0
 11
6.8289165596
 21
4.8332843276
 31
0.0
  0
LINE
  5
347
330
1F
100
AcDbEntity
  8
0
  6
Continuous
 62
     7
370
    30
100
AcDbLine
 10
6.8492768844
 20
4.8508962241
 30
0.0
 11
6.8289165596
 21
4.8391411732
 31
0.0
  0
LINE
  5
348
330
1F
100
AcDbEntity
  8
0
  6
Continuous
 62
     7
370
    30
100
AcDbLine
 10
6.8492768844
 20
4.8567527031
 30
0.0
 11
6.8492768844
 21
4.8508962241
 31
0.0
  0
LINE
  5
349
330
1F
100
AcDbEntity
  8
0
  6
Continuous
 62
     7
370
    30
100
AcDbLine
 10
6.8289165596
 20
4.868507754
 30
0.0
 11
6.8492768844
 21
4.8567527031
 31
0.0
  0
LINE
  5
34A
330
1F
100
AcDbEntity
  8
0
  6
Continuous
 62
     7
370
    30
100
AcDbLine
 10
6.8289165596
 20
4.8743645997
 30
0.0
 11
6.8289165596
 21
4.868507754
 31
0.0
  0
LINE
  5
34B
330
1F
100
AcDbEntity
  8
0
  6
Continuous
 62
     7
370
    30
100
AcDbLine
 10
6.8492768844
 20
4.8861196505
 30
0.0
 11
6.8289165596
 21
4.8743645997
 31
0.0
  0
LINE
  5
34C
330
1F
100
AcDbEntity
  8
0
  6
Continuous
 62
     7
370
    30
100
AcDbLine
 10
6.8492768844
 20
4.8919761296
 30
0.0
 11
6.8492768844
 21
4.8861196505
 31
0.0
  0
LINE
  5
34D
330
1F
100
AcDbEntity
  8
0
  6
Continuous
 62
     7
370
    30
100
AcDbLine
 10
6.8289165596
 20
4.9037311804
 30
0.0
 11
6.8492768844
 21
4.8919761296
 31
0.0
  0
LINE
  5
34E
330
1F
100
AcDbEntity
  8
0
  6
Continuous
 62
     7
370
    30
100
AcDbLine
 10
6.8289165596
 20
4.9095880261
 30
0.0
 11
6.8289165596
 21
4.9037311804
 31
0.0
  0
LINE
  5
34F
330
1F
100
AcDbEntity
  8
0
  6
Continuous
 62
     7
370
    30
100
AcDbLine
 10
6.8492768844
 20
4.921343077
 30
0.0
 11
6.8289165596
 21
4.9095880261
 31
0.0
  0
LINE
  5
350
330
1F
100
AcDbEntity
  8
0
  6
Continuous
 62
     7
370
    30
100
AcDbLine
 10
6.8492768844
 20
4.927199556
 30
0.0
 11
6.8492768844
 21
4.921343077
 31
0.0
  0
LINE
  5
351
330
1F
100
AcDbEntity
  8
0
  6
Continuous
 62
     7
370
    30
100
AcDbLine
 10
6.8289165596
 20
4.9389546069
 30
0.0
 11
6.8492768844
 21
4.927199556
 31
0.0
  0
LINE
  5
352
330
1F
100
AcDbEntity
  8
0
  6
Continuous
 62
     7
370
    30
100
AcDbLine
 10
6.8289165596
 20
4.9448114525
 30
0.0
 11
6.8289165596
 21
4.9389546069
 31
0.0
  0
LINE
  5
353
330
1F
100
AcDbEntity
  8
0
  6
Continuous
 62
     7
370
    30
100
AcDbLine
 10
6.8492768844
 20
4.9565665034
 30
0.0
 11
6.8289165596
 21
4.9448114525
 31
0.0
  0
LINE
  5
354
330
1F
100
AcDbEntity
  8
0
  6
Continuous
 62
     7
370
    30
100
AcDbLine
 10
6.8492768844
 20
4.9624229824
 30
0.0
 11
6.8492768844
 21
4.9565665034
 31
0.0
  0
LINE
  5
355
330
1F
100
AcDbEntity
  8
0
  6
Continuous
 62
     7
370
    30
100
AcDbLine
 10
6.8289165596
 20
4.9741780333
 30
0.0
 11
6.8492768844
 21
4.9624229824
 31
0.0
  0
LINE
  5
356
330
1F
100
AcDbEntity
  8
0
  6
Continuous
 62
     7
370
    30
100
AcDbLine
 10
6.8289165596
 20
4.980034879
 30
0.0
 11
6.8289165596
 21
4.9741780333
 31
0.0
  0
LINE
  5
357
330
1F
100
AcDbEntity
  8
0
  6
Continuous
 62
     7
370
    30
100
AcDbLine
 10
6.8461965533
 20
4.9900114704
 30
0.0
 11
6.8289165596
 21
4.980034879
 31
0.0
  0
LINE
  5
358
330
1F
100
AcDbEntity
  8
0
  6
Continuous
 62
     7
370
    30
100
AcDbLine
 10
6.9433158247
 20
4.9900114704
 30
0.0
 11
6.8461965533
 21
4.9900114704
 31
0.0
  0
ARC
  5
359
330
1F
100
AcDbEntity
  8
0
  6
Continuous
 62
     7
370
    30
100
AcDbCircle
 10
6.9433158452
 20
4.9280114995
 30
0.0
 40
0.0619999999999994
100
AcDbArc
 50
0.0
 51
90.0
  0
LINE
  5
35A
330
1F
100
AcDbEntity
  8
0
  6
Continuous
 62
     7
370
    30
100
AcDbLine
 10
7.0053158752
 20
4.9280114933
 30
0.0
 11
7.0053158752
 21
4.926422525
 31
0.0
  0
ARC
  5
35B
330
1F
100
AcDbEntity
  8
0
  6
Continuous
 62
     7
370
    30
100
AcDbCircle
 10
6.9953158452
 20
4.9264225202
 30
0.0
 40
0.0099999999999893
100
AcDbArc
 50
246.7301760415
 51
0.0
  0
ARC
  5
35C
330
1F
100
AcDbEntity
  8
0
  6
Continuous
 62
     7
370
    30
100
AcDbCircle
 10
6.9633158452
 20
4.8520114995
 30
0.0
 40
0.0710000000000077
100
AcDbArc
 50
66.7301760415
 51
232.4184423812
  0
ARC
  5
35D
330
1F
100
AcDbEntity
  8
0
  6
Continuous
 62
     7
370
    30
100
AcDbCircle
 10
6.9078158452
 20
4.7798952739
 30
0.0
 40
0.0200000000000005
100
AcDbArc
 50
0.0
 51
52.4184423812
  0
LINE
  5
35E
330
1F
100
AcDbEntity
  8
0
  6
Continuous
 62
     7
370
    30
100
AcDbLine
 10
6.9278158305
 20
4.6150115024
 30
0.0
 11
6.9278158305
 21
4.779895271
 31
0.0
  0
LINE
  5
35F
330
1F
100
AcDbEntity
  8
0
  6
Continuous
 62
     7
370
    30
100
AcDbLine
 10
6.9278158305
 20
4.6150115024
 30
0.0
 11
6.5828158526
 21
4.6150115024
 31
0.0
  0
LINE
  5
360
330
1F
100
AcDbEntity
  8
0
  6
Continuous
 62
     7
370
    30
100
AcDbLine
 10
6.5828158526
 20
4.779895271
 30
0.0
 11
6.5828158526
 21
4.6150115024
 31
0.0
  0
ARC
  5
361
330
1F
100
AcDbEntity
  8
0
  6
Continuous
 62
     7
370
    30
100
AcDbCircle
 10
6.6028158452
 20
4.7798952739
 30
0.0
 40
0.0199999999999986
100
AcDbArc
 50
127.5815576187
 51
180.0
  0
ARC
  5
362
330
1F
100
AcDbEntity
  8
0
  6
Continuous
 62
     7
370
    30
100
AcDbCircle
 10
6.5473158452
 20
4.8520114995
 30
0.0
 40
0.0710000000000108
100
AcDbArc
 50
307.5815576188
 51
113.2698239585
  0
ARC
  5
363
330
1F
100
AcDbEntity
  8
0
  6
Continuous
 62
     7
370
    30
100
AcDbCircle
 10
6.5153158452
 20
4.9264225202
 30
0.0
 40
0.0099999999999989
100
AcDbArc
 50
180.0
 51
293.2698239585
  0
LINE
  5
364
330
1F
100
AcDbEntity
  8
0
  6
Continuous
 62
     7
370
    30
100
AcDbLine
 10
6.5053158446
 20
4.9280114933
 30
0.0
 11
6.5053158446
 21
4.926422525
 31
0.0
  0
ARC
  5
365
330
1F
100
AcDbEntity
  8
0
  6
Continuous
 62
     7
370
    30
100
AcDbCircle
 10
6.5673158452
 20
4.9280114995
 30
0.0
 40
0.0619999999999994
100
AcDbArc
 50
90.0
 51
180.0
  0
LINE
  5
366
330
1F
100
AcDbEntity
  8
0
  6
Continuous
 62
     7
370
    30
100
AcDbLine
 10
6.8492768844
 20
4.8156727977
 30
0.0
 11
6.8289165596
 21
4.8039177468
 31
0.0
  0
LINE
  5
367
330
1F
100
AcDbEntity
  8
0
  6
Continuous
 62
     7
370
    30
100
AcDbLine
 10
6.6817460331
 20
4.9254214632
 30
0.0
 11
6.661385635
 21
4.9371765141
 31
0.0
  0
LINE
  5
368
330
1F
100
AcDbEntity
  8
0
  6
Continuous
 62
     7
370
    30
100
AcDbLine
 10
8.0053157898
 20
4.9280114933
 30
0.0
 11
8.0053157898
 21
4.926422525
 31
0.0
  0
ARC
  5
369
330
1F
100
AcDbEntity
  8
0
  6
Continuous
 62
     7
370
    30
100
AcDbCircle
 10
8.0153158452
 20
4.9264225202
 30
0.0
 40
0.0099999999999998
100
AcDbArc
 50
180.0
 51
293.2698239585
  0
ARC
  5
36A
330
1F
100
AcDbEntity
  8
0
  6
Continuous
 62
     7
370
    30
100
AcDbCircle
 10
8.0473158452
 20
4.8520114995
 30
0.0
 40
0.0710000000000111
100
AcDbArc
 50
307.5815576188
 51
113.2698239585
  0
ARC
  5
36B
330
1F
100
AcDbEntity
  8
0
  6
Continuous
 62
     7
370
    30
100
AcDbCircle
 10
8.1028158452
 20
4.7798952739
 30
0.0
 40
0.0199999999999996
100
AcDbArc
 50
127.5815576187
 51
180.0
  0
LINE
  5
36C
330
1F
100
AcDbEntity
  8
0
  6
Continuous
 62
     7
370
    30
100
AcDbLine
 10
8.0828159078
 20
4.779895271
 30
0.0
 11
8.0828159078
 21
4.6150115024
 31
0.0
  0
LINE
  5
36D
330
1F
100
AcDbEntity
  8
0
  6
Continuous
 62
     7
370
    30
100
AcDbLine
 10
8.4278157757
 20
4.6150115024
 30
0.0
 11
8.4278157757
 21
4.779895271
 31
0.0
  0
ARC
  5
36E
330
1F
100
AcDbEntity
  8
0
  6
Continuous
 62
     7
370
    30
100
AcDbCircle
 10
8.4078158452
 20
4.7798952739
 30
0.0
 40
0.0200000000000014
100
AcDbArc
 50
0.0
 51
52.4184423812
  0
ARC
  5
36F
330
1F
100
AcDbEntity
  8
0
  6
Continuous
 62
     7
370
    30
100
AcDbCircle
 10
8.4633158452
 20
4.8520114995
 30
0.0
 40
0.0710000000000094
100
AcDbArc
 50
66.7301760415
 51
232.4184423812
  0
ARC
  5
370
330
1F
100
AcDbEntity
  8
0
  6
Continuous
 62
     7
370
    30
100
AcDbCircle
 10
8.4953158452
 20
4.9264225202
 30
0.0
 40
0.0099999999999891
100
AcDbArc
 50
246.7301760415
 51
0.0
  0
LINE
  5
371
330
1F
100
AcDbEntity
  8
0
  6
Continuous
 62
     7
370
    30
100
AcDbLine
 10
8.5053157471
 20
4.9280114933
 30
0.0
 11
8.5053157471
 21
4.926422525
 31
0.0
  0
ARC
  5
372
330
1F
100
AcDbEntity
  8
0
  6
Continuous
 62
     7
370
    30
100
AcDbCircle
 10
8.4433158452
 20
4.9280114995
 30
0.0
 40
0.0619999999999994
100
AcDbArc
 50
0.0
 51
90.0
  0
LINE
  5
373
330
1F
100
AcDbEntity
  8
0
  6
Continuous
 62
     7
370
    30
100
AcDbLine
 10
8.4433159166
 20
4.9900114704
 30
0.0
 11
8.3461965719
 21
4.9900114704
 31
0.0
  0
LINE
  5
374
330
1F
100
AcDbEntity
  8
0
  6
Continuous
 62
     7
370
    30
100
AcDbLine
 10
8.3461965719
 20
4.9900114704
 30
0.0
 11
8.3289165048
 21
4.980034879
 31
0.0
  0
LINE
  5
375
330
1F
100
AcDbEntity
  8
0
  6
Continuous
 62
     7
370
    30
100
AcDbLine
 10
8.3289165048
 20
4.980034879
 30
0.0
 11
8.3289165048
 21
4.9741780333
 31
0.0
  0
LINE
  5
376
330
1F
100
AcDbEntity
  8
0
  6
Continuous
 62
     7
370
    30
100
AcDbLine
 10
8.3289165048
 20
4.9741780333
 30
0.0
 11
8.3492769763
 21
4.9624229824
 31
0.0
  0
LINE
  5
377
330
1F
100
AcDbEntity
  8
0
  6
Continuous
 62
     7
370
    30
100
AcDbLine
 10
8.3492769763
 20
4.9624229824
 30
0.0
 11
8.3492769763
 21
4.9565665034
 31
0.0
  0
LINE
  5
378
330
1F
100
AcDbEntity
  8
0
  6
Continuous
 62
     7
370
    30
100
AcDbLine
 10
8.3492769763
 20
4.9565665034
 30
0.0
 11
8.3289165048
 21
4.9448114525
 31
0.0
  0
LINE
  5
379
330
1F
100
AcDbEntity
  8
0
  6
Continuous
 62
     7
370
    30
100
AcDbLine
 10
8.3289165048
 20
4.9448114525
 30
0.0
 11
8.3289165048
 21
4.9389546069
 31
0.0
  0
LINE
  5
37A
330
1F
100
AcDbEntity
  8
0
  6
Continuous
 62
     7
370
    30
100
AcDbLine
 10
8.3289165048
 20
4.9389546069
 30
0.0
 11
8.3492769763
 21
4.927199556
 31
0.0
  0
LINE
  5
37B
330
1F
100
AcDbEntity
  8
0
  6
Continuous
 62
     7
370
    30
100
AcDbLine
 10
8.3492769763
 20
4.927199556
 30
0.0
 11
8.3492769763
 21
4.921343077
 31
0.0
  0
LINE
  5
37C
330
1F
100
AcDbEntity
  8
0
  6
Continuous
 62
     7
370
    30
100
AcDbLine
 10
8.3492769763
 20
4.921343077
 30
0.0
 11
8.3289165048
 21
4.9095880261
 31
0.0
  0
LINE
  5
37D
330
1F
100
AcDbEntity
  8
0
  6
Continuous
 62
     7
370
    30
100
AcDbLine
 10
8.3289165048
 20
4.9095880261
 30
0.0
 11
8.3289165048
 21
4.9037311804
 31
0.0
  0
LINE
  5
37E
330
1F
100
AcDbEntity
  8
0
  6
Continuous
 62
     7
370
    30
100
AcDbLine
 10
8.3289165048
 20
4.9037311804
 30
0.0
 11
8.3492769763
 21
4.8919761296
 31
0.0
  0
LINE
  5
37F
330
1F
100
AcDbEntity
  8
0
  6
Continuous
 62
     7
370
    30
100
AcDbLine
 10
8.3492769763
 20
4.8919761296
 30
0.0
 11
8.3492769763
 21
4.8861196505
 31
0.0
  0
LINE
  5
380
330
1F
100
AcDbEntity
  8
0
  6
Continuous
 62
     7
370
    30
100
AcDbLine
 10
8.3492769763
 20
4.8861196505
 30
0.0
 11
8.3289165048
 21
4.8743645997
 31
0.0
  0
LINE
  5
381
330
1F
100
AcDbEntity
  8
0
  6
Continuous
 62
     7
370
    30
100
AcDbLine
 10
8.3289165048
 20
4.8743645997
 30
0.0
 11
8.3289165048
 21
4.868507754
 31
0.0
  0
LINE
  5
382
330
1F
100
AcDbEntity
  8
0
  6
Continuous
 62
     7
370
    30
100
AcDbLine
 10
8.3289165048
 20
4.868507754
 30
0.0
 11
8.3492769763
 21
4.8567527031
 31
0.0
  0
LINE
  5
383
330
1F
100
AcDbEntity
  8
0
  6
Continuous
 62
     7
370
    30
100
AcDbLine
 10
8.3492769763
 20
4.8567527031
 30
0.0
 11
8.3492769763
 21
4.8508962241
 31
0.0
  0
LINE
  5
384
330
1F
100
AcDbEntity
  8
0
  6
Continuous
 62
     7
370
    30
100
AcDbLine
 10
8.3492769763
 20
4.8508962241
 30
0.0
 11
8.3289165048
 21
4.8391411732
 31
0.0
  0
LINE
  5
385
330
1F
100
AcDbEntity
  8
0
  6
Continuous
 62
     7
370
    30
100
AcDbLine
 10
8.3289165048
 20
4.8391411732
 30
0.0
 11
8.3289165048
 21
4.8332843276
 31
0.0
  0
LINE
  5
386
330
1F
100
AcDbEntity
  8
0
  6
Continuous
 62
     7
370
    30
100
AcDbLine
 10
8.3289165048
 20
4.8332843276
 30
0.0
 11
8.3492769763
 21
4.8215292767
 31
0.0
  0
LINE
  5
387
330
1F
100
AcDbEntity
  8
0
  6
Continuous
 62
     7
370
    30
100
AcDbLine
 10
8.1817459783
 20
4.9195646175
 30
0.0
 11
8.1817459783
 21
4.9254214632
 31
0.0
  0
LINE
  5
388
330
1F
100
AcDbEntity
  8
0
  6
Continuous
 62
     7
370
    30
100
AcDbLine
 10
8.1613856535
 20
4.9371765141
 30
0.0
 11
8.1613856535
 21
4.9430329931
 31
0.0
  0
LINE
  5
389
330
1F
100
AcDbEntity
  8
0
  6
Continuous
 62
     7
370
    30
100
AcDbLine
 10
8.1613856535
 20
4.9430329931
 30
0.0
 11
8.1817459783
 21
4.9547880439
 31
0.0
  0
LINE
  5
38A
330
1F
100
AcDbEntity
  8
0
  6
Continuous
 62
     7
370
    30
100
AcDbLine
 10
8.1817459783
 20
4.9547880439
 30
0.0
 11
8.1817459783
 21
4.9606448896
 31
0.0
  0
LINE
  5
38B
330
1F
100
AcDbEntity
  8
0
  6
Continuous
 62
     7
370
    30
100
AcDbLine
 10
8.1817459783
 20
4.9606448896
 30
0.0
 11
8.1613856535
 21
4.9723999405
 31
0.0
  0
LINE
  5
38C
330
1F
100
AcDbEntity
  8
0
  6
Continuous
 62
     7
370
    30
100
AcDbLine
 10
8.1613856535
 20
4.9723999405
 30
0.0
 11
8.1613856535
 21
4.9782564195
 31
0.0
  0
LINE
  5
38D
330
1F
100
AcDbEntity
  8
0
  6
Continuous
 62
     7
370
    30
100
AcDbLine
 10
8.1613856535
 20
4.9782564195
 30
0.0
 11
8.1817459783
 21
4.9900114704
 31
0.0
  0
LINE
  5
38E
330
1F
100
AcDbEntity
  8
0
  6
Continuous
 62
     7
370
    30
100
AcDbLine
 10
8.1817459783
 20
4.9900114704
 30
0.0
 11
8.0673159135
 21
4.9900114704
 31
0.0
  0
ARC
  5
38F
330
1F
100
AcDbEntity
  8
0
  6
Continuous
 62
     7
370
    30
100
AcDbCircle
 10
8.0673158452
 20
4.9280114995
 30
0.0
 40
0.0619999999999994
100
AcDbArc
 50
90.0
 51
180.0
  0
LINE
  5
390
330
1F
100
AcDbEntity
  8
0
  6
Continuous
 62
     7
370
    30
100
AcDbLine
 10
8.3492769763
 20
4.8156727977
 30
0.0
 11
8.3289165048
 21
4.8039177468
 31
0.0
  0
LINE
  5
391
330
1F
100
AcDbEntity
  8
0
  6
Continuous
 62
     7
370
    30
100
AcDbLine
 10
8.3289165048
 20
4.8039177468
 30
0.0
 11
8.3289165048
 21
4.7980609011
 31
0.0
  0
LINE
  5
392
330
1F
100
AcDbEntity
  8
0
  6
Continuous
 62
     7
370
    30
100
AcDbLine
 10
8.3289165048
 20
4.7980609011
 30
0.0
 11
8.3492769763
 21
4.7863058503
 31
0.0
  0
LINE
  5
393
330
1F
100
AcDbEntity
  8
0
  6
Continuous
 62
     7
370
    30
100
AcDbLine
 10
8.3492769763
 20
4.7863058503
 30
0.0
 11
8.3492769763
 21
4.7804493713
 31
0.0
  0
LINE
  5
394
330
1F
100
AcDbEntity
  8
0
  6
Continuous
 62
     7
370
    30
100
AcDbLine
 10
8.3492769763
 20
4.7804493713
 30
0.0
 11
8.3289165048
 21
4.7686943204
 31
0.0
  0
LINE
  5
395
330
1F
100
AcDbEntity
  8
0
  6
Continuous
 62
     7
370
    30
100
AcDbLine
 10
8.3289165048
 20
4.7686943204
 30
0.0
 11
8.3289165048
 21
4.762837548
 31
0.0
  0
LINE
  5
396
330
1F
100
AcDbEntity
  8
0
  6
Continuous
 62
     7
370
    30
100
AcDbLine
 10
8.3289165048
 20
4.762837548
 30
0.0
 11
8.3492769763
 21
4.7510824238
 31
0.0
  0
LINE
  5
397
330
1F
100
AcDbEntity
  8
0
  6
Continuous
 62
     7
370
    30
100
AcDbLine
 10
8.3492769763
 20
4.7510824238
 30
0.0
 11
8.3492769763
 21
4.7452259448
 31
0.0
  0
LINE
  5
398
330
1F
100
AcDbEntity
  8
0
  6
Continuous
 62
     7
370
    30
100
AcDbLine
 10
8.3492769763
 20
4.7452259448
 30
0.0
 11
8.3446756561
 21
4.7425694022
 31
0.0
  0
ARC
  5
399
330
1F
100
AcDbEntity
  8
0
  6
Continuous
 62
     7
370
    30
100
AcDbCircle
 10
8.3543487802
 20
4.7400335217
 30
0.0
 40
0.0100000000000095
100
AcDbArc
 50
165.3098749059
 51
203.8403348298
  0
ARC
  5
39A
330
1F
100
AcDbEntity
  8
0
  6
Continuous
 62
     7
370
    30
100
AcDbCircle
 10
8.3373158452
 20
4.7060114995
 30
0.0
 40
0.031
100
AcDbArc
 50
270.0
 51
75.2623825484
  0
LINE
  5
39B
330
1F
100
AcDbEntity
  8
0
  6
Continuous
 62
     7
370
    30
100
AcDbLine
 10
8.3373158611
 20
4.6750114826
 30
0.0
 11
8.1733158223
 21
4.6750114826
 31
0.0
  0
ARC
  5
39C
330
1F
100
AcDbEntity
  8
0
  6
Continuous
 62
     7
370
    30
100
AcDbCircle
 10
8.1733158452
 20
4.7060114995
 30
0.0
 40
0.0310000000000006
100
AcDbArc
 50
95.4495226951
 51
270.0
  0
LINE
  5
39D
330
1F
100
AcDbEntity
  8
0
  6
Continuous
 62
     7
370
    30
100
AcDbLine
 10
8.1703718164
 20
4.7368713947
 30
0.0
 11
8.1817468583
 21
4.7434387588
 31
0.0
  0
LINE
  5
39E
330
1F
100
AcDbEntity
  8
0
  6
Continuous
 62
     7
370
    30
100
AcDbLine
 10
8.1817468583
 20
4.7434387588
 30
0.0
 11
8.1817468583
 21
4.749303891
 31
0.0
  0
LINE
  5
39F
330
1F
100
AcDbEntity
  8
0
  6
Continuous
 62
     7
370
    30
100
AcDbLine
 10
8.1817468583
 20
4.749303891
 30
0.0
 11
8.1613856535
 21
4.7610593819
 31
0.0
  0
LINE
  5
3A0
330
1F
100
AcDbEntity
  8
0
  6
Continuous
 62
     7
370
    30
100
AcDbLine
 10
8.4278157757
 20
4.6150115024
 30
0.0
 11
8.0828159078
 21
4.6150115024
 31
0.0
  0
LINE
  5
3A1
330
1F
100
AcDbEntity
  8
0
  6
Continuous
 62
     7
370
    30
100
AcDbLine
 10
8.1613856535
 20
4.7669159343
 30
0.0
 11
8.1817459783
 21
4.7786709851
 31
0.0
  0
LINE
  5
3A2
330
1F
100
AcDbEntity
  8
0
  6
Continuous
 62
     7
370
    30
100
AcDbLine
 10
8.1817459783
 20
4.7786709851
 30
0.0
 11
8.1817459783
 21
4.7845277575
 31
0.0
  0
LINE
  5
3A3
330
1F
100
AcDbEntity
  8
0
  6
Continuous
 62
     7
370
    30
100
AcDbLine
 10
8.1817459783
 20
4.7845277575
 30
0.0
 11
8.1613856535
 21
4.7962828083
 31
0.0
  0
LINE
  5
3A4
330
1F
100
AcDbEntity
  8
0
  6
Continuous
 62
     7
370
    30
100
AcDbLine
 10
8.1613856535
 20
4.7962828083
 30
0.0
 11
8.1613856535
 21
4.8021392874
 31
0.0
  0
LINE
  5
3A5
330
1F
100
AcDbEntity
  8
0
  6
Continuous
 62
     7
370
    30
100
AcDbLine
 10
8.1613856535
 20
4.8021392874
 30
0.0
 11
8.1817459783
 21
4.8138944116
 31
0.0
  0
LINE
  5
3A6
330
1F
100
AcDbEntity
  8
0
  6
Continuous
 62
     7
370
    30
100
AcDbLine
 10
8.1817459783
 20
4.8138944116
 30
0.0
 11
8.1817459783
 21
4.8197511839
 31
0.0
  0
LINE
  5
3A7
330
1F
100
AcDbEntity
  8
0
  6
Continuous
 62
     7
370
    30
100
AcDbLine
 10
8.1817459783
 20
4.8197511839
 30
0.0
 11
8.1613856535
 21
4.8315062348
 31
0.0
  0
LINE
  5
3A8
330
1F
100
AcDbEntity
  8
0
  6
Continuous
 62
     7
370
    30
100
AcDbLine
 10
8.1613856535
 20
4.8315062348
 30
0.0
 11
8.1613856535
 21
4.8373627138
 31
0.0
  0
LINE
  5
3A9
330
1F
100
AcDbEntity
  8
0
  6
Continuous
 62
     7
370
    30
100
AcDbLine
 10
8.1613856535
 20
4.8373627138
 30
0.0
 11
8.1817459783
 21
4.849117838
 31
0.0
  0
LINE
  5
3AA
330
1F
100
AcDbEntity
  8
0
  6
Continuous
 62
     7
370
    30
100
AcDbLine
 10
8.1817459783
 20
4.849117838
 30
0.0
 11
8.1817459783
 21
4.8549746103
 31
0.0
  0
LINE
  5
3AB
330
1F
100
AcDbEntity
  8
0
  6
Continuous
 62
     7
370
    30
100
AcDbLine
 10
8.1817459783
 20
4.8549746103
 30
0.0
 11
8.1613856535
 21
4.8667296612
 31
0.0
  0
LINE
  5
3AC
330
1F
100
AcDbEntity
  8
0
  6
Continuous
 62
     7
370
    30
100
AcDbLine
 10
8.1613856535
 20
4.8667296612
 30
0.0
 11
8.1613856535
 21
4.8725861402
 31
0.0
  0
LINE
  5
3AD
330
1F
100
AcDbEntity
  8
0
  6
Continuous
 62
     7
370
    30
100
AcDbLine
 10
8.1613856535
 20
4.8725861402
 30
0.0
 11
8.1817459783
 21
4.8843412644
 31
0.0
  0
LINE
  5
3AE
330
1F
100
AcDbEntity
  8
0
  6
Continuous
 62
     7
370
    30
100
AcDbLine
 10
8.1817459783
 20
4.8843412644
 30
0.0
 11
8.1817459783
 21
4.8901980368
 31
0.0
  0
LINE
  5
3AF
330
1F
100
AcDbEntity
  8
0
  6
Continuous
 62
     7
370
    30
100
AcDbLine
 10
8.1817459783
 20
4.8901980368
 30
0.0
 11
8.1613856535
 21
4.9019530876
 31
0.0
  0
LINE
  5
3B0
330
1F
100
AcDbEntity
  8
0
  6
Continuous
 62
     7
370
    30
100
AcDbLine
 10
8.1613856535
 20
4.9019530876
 30
0.0
 11
8.1613856535
 21
4.9078095666
 31
0.0
  0
LINE
  5
3B1
330
1F
100
AcDbEntity
  8
0
  6
Continuous
 62
     7
370
    30
100
AcDbLine
 10
8.1613856535
 20
4.9078095666
 30
0.0
 11
8.1817459783
 21
4.9195646175
 31
0.0
  0
LINE
  5
3B2
330
1F
100
AcDbEntity
  8
0
  6
Continuous
 62
     7
370
    30
100
AcDbLine
 10
8.1817459783
 20
4.9254214632
 30
0.0
 11
8.1613856535
 21
4.9371765141
 31
0.0
  0
LINE
  5
3B3
330
1F
100
AcDbEntity
  8
0
  6
Continuous
 62
     7
370
    30
100
AcDbLine
 10
8.1613856535
 20
4.7610593819
 30
0.0
 11
8.1613856535
 21
4.7669159343
 31
0.0
  0
LINE
  5
3B4
330
1F
100
AcDbEntity
  8
0
  6
Continuous
 62
     7
370
    30
100
AcDbLine
 10
8.3492769763
 20
4.8215292767
 30
0.0
 11
8.3492769763
 21
4.8156727977
 31
0.0
  0
LINE
  5
3B5
330
1F
100
AcDbEntity
  8
0
  6
Continuous
 62
     7
370
    30
100
AcDbLine
 10
3.8289165959
 20
4.7980609011
 30
0.0
 11
3.8492769207
 21
4.7863058503
 31
0.0
  0
LINE
  5
3B6
330
1F
100
AcDbEntity
  8
0
  6
Continuous
 62
     7
370
    30
100
AcDbLine
 10
3.8289165959
 20
4.8039177468
 30
0.0
 11
3.8289165959
 21
4.7980609011
 31
0.0
  0
LINE
  5
3B7
330
1F
100
AcDbEntity
  8
0
  6
Continuous
 62
     7
370
    30
100
AcDbLine
 10
3.8492769207
 20
4.8156727977
 30
0.0
 11
3.8289165959
 21
4.8039177468
 31
0.0
  0
LINE
  5
3B8
330
1F
100
AcDbEntity
  8
0
  6
Continuous
 62
     7
370
    30
100
AcDbLine
 10
3.8492769207
 20
4.8215292767
 30
0.0
 11
3.8492769207
 21
4.8156727977
 31
0.0
  0
LINE
  5
3B9
330
1F
100
AcDbEntity
  8
0
  6
Continuous
 62
     7
370
    30
100
AcDbLine
 10
3.8289165959
 20
4.8332843276
 30
0.0
 11
3.8492769207
 21
4.8215292767
 31
0.0
  0
LINE
  5
3BA
330
1F
100
AcDbEntity
  8
0
  6
Continuous
 62
     7
370
    30
100
AcDbLine
 10
3.8289165959
 20
4.8391411732
 30
0.0
 11
3.8289165959
 21
4.8332843276
 31
0.0
  0
LINE
  5
3BB
330
1F
100
AcDbEntity
  8
0
  6
Continuous
 62
     7
370
    30
100
AcDbLine
 10
3.8492769207
 20
4.8508962241
 30
0.0
 11
3.8289165959
 21
4.8391411732
 31
0.0
  0
LINE
  5
3BC
330
1F
100
AcDbEntity
  8
0
  6
Continuous
 62
     7
370
    30
100
AcDbLine
 10
3.8492769207
 20
4.8861196505
 30
0.0
 11
3.8289165959
 21
4.8743645997
 31
0.0
  0
LINE
  5
3BD
330
1F
100
AcDbEntity
  8
0
  6
Continuous
 62
     7
370
    30
100
AcDbLine
 10
3.8492769207
 20
4.8919761296
 30
0.0
 11
3.8492769207
 21
4.8861196505
 31
0.0
  0
LINE
  5
3BE
330
1F
100
AcDbEntity
  8
0
  6
Continuous
 62
     7
370
    30
100
AcDbLine
 10
3.8289165959
 20
4.9095880261
 30
0.0
 11
3.8289165959
 21
4.9037311804
 31
0.0
  0
LINE
  5
3BF
330
1F
100
AcDbEntity
  8
0
  6
Continuous
 62
     7
370
    30
100
AcDbLine
 10
3.8492769207
 20
4.921343077
 30
0.0
 11
3.8289165959
 21
4.9095880261
 31
0.0
  0
LINE
  5
3C0
330
1F
100
AcDbEntity
  8
0
  6
Continuous
 62
     7
370
    30
100
AcDbLine
 10
3.8492769207
 20
4.927199556
 30
0.0
 11
3.8492769207
 21
4.921343077
 31
0.0
  0
LINE
  5
3C1
330
1F
100
AcDbEntity
  8
0
  6
Continuous
 62
     7
370
    30
100
AcDbLine
 10
3.8289165959
 20
4.9389546069
 30
0.0
 11
3.8492769207
 21
4.927199556
 31
0.0
  0
LINE
  5
3C2
330
1F
100
AcDbEntity
  8
0
  6
Continuous
 62
     7
370
    30
100
AcDbLine
 10
3.8289165959
 20
4.9448114525
 30
0.0
 11
3.8289165959
 21
4.9389546069
 31
0.0
  0
LINE
  5
3C3
330
1F
100
AcDbEntity
  8
0
  6
Continuous
 62
     7
370
    30
100
AcDbLine
 10
3.8492769207
 20
4.9624229824
 30
0.0
 11
3.8492769207
 21
4.9565665034
 31
0.0
  0
LINE
  5
3C4
330
1F
100
AcDbEntity
  8
0
  6
Continuous
 62
     7
370
    30
100
AcDbLine
 10
3.8289165959
 20
4.9741780333
 30
0.0
 11
3.8492769207
 21
4.9624229824
 31
0.0
  0
LINE
  5
3C5
330
1F
100
AcDbEntity
  8
0
  6
Continuous
 62
     7
370
    30
100
AcDbLine
 10
3.5053158808
 20
4.9280114933
 30
0.0
 11
3.5053158808
 21
4.926422525
 31
0.0
  0
ARC
  5
3C6
330
1F
100
AcDbEntity
  8
0
  6
Continuous
 62
     7
370
    30
100
AcDbCircle
 10
3.5153158452
 20
4.9264225202
 30
0.0
 40
0.0099999999999993
100
AcDbArc
 50
180.0
 51
293.2698239585
  0
ARC
  5
3C7
330
1F
100
AcDbEntity
  8
0
  6
Continuous
 62
     7
370
    30
100
AcDbCircle
 10
3.5473158452
 20
4.8520114995
 30
0.0
 40
0.0710000000000112
100
AcDbArc
 50
307.5815576188
 51
113.2698239585
  0
ARC
  5
3C8
330
1F
100
AcDbEntity
  8
0
  6
Continuous
 62
     7
370
    30
100
AcDbCircle
 10
3.6028158452
 20
4.7798952739
 30
0.0
 40
0.0199999999999987
100
AcDbArc
 50
127.5815576187
 51
180.0
  0
LINE
  5
3C9
330
1F
100
AcDbEntity
  8
0
  6
Continuous
 62
     7
370
    30
100
AcDbLine
 10
3.8289165959
 20
4.8743645997
 30
0.0
 11
3.8289165959
 21
4.868507754
 31
0.0
  0
LINE
  5
3CA
330
1F
100
AcDbEntity
  8
0
  6
Continuous
 62
     7
370
    30
100
AcDbLine
 10
3.8492769207
 20
4.8567527031
 30
0.0
 11
3.8492769207
 21
4.8508962241
 31
0.0
  0
ARC
  5
3CB
330
1F
100
AcDbEntity
  8
0
  6
Continuous
 62
     7
370
    30
100
AcDbCircle
 10
3.9078158452
 20
4.7798952739
 30
0.0
 40
0.0200000000000004
100
AcDbArc
 50
0.0
 51
52.4184423812
  0
ARC
  5
3CC
330
1F
100
AcDbEntity
  8
0
  6
Continuous
 62
     7
370
    30
100
AcDbCircle
 10
3.9633158452
 20
4.8520114995
 30
0.0
 40
0.0710000000000082
100
AcDbArc
 50
66.7301760415
 51
232.4184423812
  0
ARC
  5
3CD
330
1F
100
AcDbEntity
  8
0
  6
Continuous
 62
     7
370
    30
100
AcDbCircle
 10
3.9953158452
 20
4.9264225202
 30
0.0
 40
0.0099999999999905
100
AcDbArc
 50
246.7301760415
 51
0.0
  0
LINE
  5
3CE
330
1F
100
AcDbEntity
  8
0
  6
Continuous
 62
     7
370
    30
100
AcDbLine
 10
4.0053158381
 20
4.9280114933
 30
0.0
 11
4.0053158381
 21
4.926422525
 31
0.0
  0
ARC
  5
3CF
330
1F
100
AcDbEntity
  8
0
  6
Continuous
 62
     7
370
    30
100
AcDbCircle
 10
3.9433158452
 20
4.9280114995
 30
0.0
 40
0.0620000000000007
100
AcDbArc
 50
0.0
 51
90.0
  0
LINE
  5
3D0
330
1F
100
AcDbEntity
  8
0
  6
Continuous
 62
     7
370
    30
100
AcDbLine
 10
3.8461965163
 20
4.9900114704
 30
0.0
 11
3.8289165959
 21
4.980034879
 31
0.0
  0
LINE
  5
3D1
330
1F
100
AcDbEntity
  8
0
  6
Continuous
 62
     7
370
    30
100
AcDbLine
 10
3.8289165959
 20
4.980034879
 30
0.0
 11
3.8289165959
 21
4.9741780333
 31
0.0
  0
LINE
  5
3D2
330
1F
100
AcDbEntity
  8
0
  6
Continuous
 62
     7
370
    30
100
AcDbLine
 10
3.8289165959
 20
4.9037311804
 30
0.0
 11
3.8492769207
 21
4.8919761296
 31
0.0
  0
LINE
  5
3D3
330
1F
100
AcDbEntity
  8
0
  6
Continuous
 62
     7
370
    30
100
AcDbLine
 10
3.5828158522
 20
4.779895271
 30
0.0
 11
3.5828158522
 21
4.6150115024
 31
0.0
  0
LINE
  5
3D4
330
1F
100
AcDbEntity
  8
0
  6
Continuous
 62
     7
370
    30
100
AcDbLine
 10
3.9278158667
 20
4.6150115024
 30
0.0
 11
3.5828158522
 21
4.6150115024
 31
0.0
  0
LINE
  5
3D5
330
1F
100
AcDbEntity
  8
0
  6
Continuous
 62
     7
370
    30
100
AcDbLine
 10
3.9278158667
 20
4.6150115024
 30
0.0
 11
3.9278158667
 21
4.779895271
 31
0.0
  0
LINE
  5
3D6
330
1F
100
AcDbEntity
  8
0
  6
Continuous
 62
     7
370
    30
100
AcDbLine
 10
3.8289165959
 20
4.868507754
 30
0.0
 11
3.8492769207
 21
4.8567527031
 31
0.0
  0
LINE
  5
3D7
330
1F
100
AcDbEntity
  8
0
  6
Continuous
 62
     7
370
    30
100
AcDbLine
 10
3.943315861
 20
4.9900114704
 30
0.0
 11
3.8461965163
 21
4.9900114704
 31
0.0
  0
LINE
  5
3D8
330
1F
100
AcDbEntity
  8
0
  6
Continuous
 62
     7
370
    30
100
AcDbLine
 10
3.6613855979
 20
4.8315062348
 30
0.0
 11
3.6613855979
 21
4.8373627138
 31
0.0
  0
LINE
  5
3D9
330
1F
100
AcDbEntity
  8
0
  6
Continuous
 62
     7
370
    30
100
AcDbLine
 10
3.6817460693
 20
4.849117838
 30
0.0
 11
3.6817460693
 21
4.8549746103
 31
0.0
  0
LINE
  5
3DA
330
1F
100
AcDbEntity
  8
0
  6
Continuous
 62
     7
370
    30
100
AcDbLine
 10
3.6817460693
 20
4.8549746103
 30
0.0
 11
3.6613855979
 21
4.8667296612
 31
0.0
  0
LINE
  5
3DB
330
1F
100
AcDbEntity
  8
0
  6
Continuous
 62
     7
370
    30
100
AcDbLine
 10
3.6613855979
 20
4.8667296612
 30
0.0
 11
3.6613855979
 21
4.8725861402
 31
0.0
  0
LINE
  5
3DC
330
1F
100
AcDbEntity
  8
0
  6
Continuous
 62
     7
370
    30
100
AcDbLine
 10
3.6613855979
 20
4.8725861402
 30
0.0
 11
3.6817460693
 21
4.8843412644
 31
0.0
  0
LINE
  5
3DD
330
1F
100
AcDbEntity
  8
0
  6
Continuous
 62
     7
370
    30
100
AcDbLine
 10
3.6817460693
 20
4.8843412644
 30
0.0
 11
3.6817460693
 21
4.8901980368
 31
0.0
  0
LINE
  5
3DE
330
1F
100
AcDbEntity
  8
0
  6
Continuous
 62
     7
370
    30
100
AcDbLine
 10
3.6817460693
 20
4.8901980368
 30
0.0
 11
3.6613855979
 21
4.9019530876
 31
0.0
  0
LINE
  5
3DF
330
1F
100
AcDbEntity
  8
0
  6
Continuous
 62
     7
370
    30
100
AcDbLine
 10
3.6613855979
 20
4.9019530876
 30
0.0
 11
3.6613855979
 21
4.9078095666
 31
0.0
  0
LINE
  5
3E0
330
1F
100
AcDbEntity
  8
0
  6
Continuous
 62
     7
370
    30
100
AcDbLine
 10
3.6613855979
 20
4.9078095666
 30
0.0
 11
3.6817460693
 21
4.9195646175
 31
0.0
  0
LINE
  5
3E1
330
1F
100
AcDbEntity
  8
0
  6
Continuous
 62
     7
370
    30
100
AcDbLine
 10
3.6817460693
 20
4.9195646175
 30
0.0
 11
3.6817460693
 21
4.9254214632
 31
0.0
  0
LINE
  5
3E2
330
1F
100
AcDbEntity
  8
0
  6
Continuous
 62
     7
370
    30
100
AcDbLine
 10
3.6817460693
 20
4.9254214632
 30
0.0
 11
3.6613855979
 21
4.9371765141
 31
0.0
  0
LINE
  5
3E3
330
1F
100
AcDbEntity
  8
0
  6
Continuous
 62
     7
370
    30
100
AcDbLine
 10
3.6613855979
 20
4.9371765141
 30
0.0
 11
3.6613855979
 21
4.9430329931
 31
0.0
  0
LINE
  5
3E4
330
1F
100
AcDbEntity
  8
0
  6
Continuous
 62
     7
370
    30
100
AcDbLine
 10
3.6613855979
 20
4.9430329931
 30
0.0
 11
3.6817460693
 21
4.9547880439
 31
0.0
  0
LINE
  5
3E5
330
1F
100
AcDbEntity
  8
0
  6
Continuous
 62
     7
370
    30
100
AcDbLine
 10
3.6817460693
 20
4.9547880439
 30
0.0
 11
3.6817460693
 21
4.9606448896
 31
0.0
  0
LINE
  5
3E6
330
1F
100
AcDbEntity
  8
0
  6
Continuous
 62
     7
370
    30
100
AcDbLine
 10
3.6817460693
 20
4.9606448896
 30
0.0
 11
3.6613855979
 21
4.9723999405
 31
0.0
  0
LINE
  5
3E7
330
1F
100
AcDbEntity
  8
0
  6
Continuous
 62
     7
370
    30
100
AcDbLine
 10
3.6613855979
 20
4.9723999405
 30
0.0
 11
3.6613855979
 21
4.9782564195
 31
0.0
  0
LINE
  5
3E8
330
1F
100
AcDbEntity
  8
0
  6
Continuous
 62
     7
370
    30
100
AcDbLine
 10
3.6613855979
 20
4.9782564195
 30
0.0
 11
3.6817460693
 21
4.9900114704
 31
0.0
  0
LINE
  5
3E9
330
1F
100
AcDbEntity
  8
0
  6
Continuous
 62
     7
370
    30
100
AcDbLine
 10
3.6817460693
 20
4.9900114704
 30
0.0
 11
3.5673158579
 21
4.9900114704
 31
0.0
  0
ARC
  5
3EA
330
1F
100
AcDbEntity
  8
0
  6
Continuous
 62
     7
370
    30
100
AcDbCircle
 10
3.5673158452
 20
4.9280114995
 30
0.0
 40
0.0620000000000003
100
AcDbArc
 50
90.0
 51
180.0
  0
LINE
  5
3EB
330
1F
100
AcDbEntity
  8
0
  6
Continuous
 62
     7
370
    30
100
AcDbLine
 10
3.8492769207
 20
4.9565665034
 30
0.0
 11
3.8289165959
 21
4.9448114525
 31
0.0
  0
LINE
  5
3EC
330
1F
100
AcDbEntity
  8
0
  6
Continuous
 62
     7
370
    30
100
AcDbLine
 10
3.8492769207
 20
4.7863058503
 30
0.0
 11
3.8492769207
 21
4.7804493713
 31
0.0
  0
LINE
  5
3ED
330
1F
100
AcDbEntity
  8
0
  6
Continuous
 62
     7
370
    30
100
AcDbLine
 10
3.8492769207
 20
4.7804493713
 30
0.0
 11
3.8289165959
 21
4.7686943204
 31
0.0
  0
LINE
  5
3EE
330
1F
100
AcDbEntity
  8
0
  6
Continuous
 62
     7
370
    30
100
AcDbLine
 10
3.8289165959
 20
4.7686943204
 30
0.0
 11
3.8289165959
 21
4.762837548
 31
0.0
  0
LINE
  5
3EF
330
1F
100
AcDbEntity
  8
0
  6
Continuous
 62
     7
370
    30
100
AcDbLine
 10
3.8289165959
 20
4.762837548
 30
0.0
 11
3.8492769207
 21
4.7510824238
 31
0.0
  0
LINE
  5
3F0
330
1F
100
AcDbEntity
  8
0
  6
Continuous
 62
     7
370
    30
100
AcDbLine
 10
3.8492769207
 20
4.7510824238
 30
0.0
 11
3.8492769207
 21
4.7452259448
 31
0.0
  0
LINE
  5
3F1
330
1F
100
AcDbEntity
  8
0
  6
Continuous
 62
     7
370
    30
100
AcDbLine
 10
3.8492769207
 20
4.7452259448
 30
0.0
 11
3.8446756005
 21
4.7425694022
 31
0.0
  0
ARC
  5
3F2
330
1F
100
AcDbEntity
  8
0
  6
Continuous
 62
     7
370
    30
100
AcDbCircle
 10
3.8543487802
 20
4.7400335217
 30
0.0
 40
0.0100000000000086
100
AcDbArc
 50
165.3098749059
 51
203.8403348298
  0
ARC
  5
3F3
330
1F
100
AcDbEntity
  8
0
  6
Continuous
 62
     7
370
    30
100
AcDbCircle
 10
3.8373158452
 20
4.7060114995
 30
0.0
 40
0.0309999999999998
100
AcDbArc
 50
270.0
 51
75.2623825484
  0
LINE
  5
3F4
330
1F
100
AcDbEntity
  8
0
  6
Continuous
 62
     7
370
    30
100
AcDbLine
 10
3.8373158055
 20
4.6750114826
 30
0.0
 11
3.6733159134
 21
4.6750114826
 31
0.0
  0
ARC
  5
3F5
330
1F
100
AcDbEntity
  8
0
  6
Continuous
 62
     7
370
    30
100
AcDbCircle
 10
3.6733158452
 20
4.7060114995
 30
0.0
 40
0.0310000000000005
100
AcDbArc
 50
95.4495226951
 51
270.0
  0
LINE
  5
3F6
330
1F
100
AcDbEntity
  8
0
  6
Continuous
 62
     7
370
    30
100
AcDbLine
 10
3.6703717607
 20
4.7368713947
 30
0.0
 11
3.6817468027
 21
4.7434387588
 31
0.0
  0
LINE
  5
3F7
330
1F
100
AcDbEntity
  8
0
  6
Continuous
 62
     7
370
    30
100
AcDbLine
 10
3.6817468027
 20
4.7434387588
 30
0.0
 11
3.6817468027
 21
4.749303891
 31
0.0
  0
LINE
  5
3F8
330
1F
100
AcDbEntity
  8
0
  6
Continuous
 62
     7
370
    30
100
AcDbLine
 10
3.6817468027
 20
4.749303891
 30
0.0
 11
3.6613855979
 21
4.7610593819
 31
0.0
  0
LINE
  5
3F9
330
1F
100
AcDbEntity
  8
0
  6
Continuous
 62
     7
370
    30
100
AcDbLine
 10
3.6613855979
 20
4.7610593819
 30
0.0
 11
3.6613855979
 21
4.7669159343
 31
0.0
  0
LINE
  5
3FA
330
1F
100
AcDbEntity
  8
0
  6
Continuous
 62
     7
370
    30
100
AcDbLine
 10
3.6613855979
 20
4.7669159343
 30
0.0
 11
3.6817460693
 21
4.7786709851
 31
0.0
  0
LINE
  5
3FB
330
1F
100
AcDbEntity
  8
0
  6
Continuous
 62
     7
370
    30
100
AcDbLine
 10
3.6817460693
 20
4.7786709851
 30
0.0
 11
3.6817460693
 21
4.7845277575
 31
0.0
  0
LINE
  5
3FC
330
1F
100
AcDbEntity
  8
0
  6
Continuous
 62
     7
370
    30
100
AcDbLine
 10
3.6817460693
 20
4.7845277575
 30
0.0
 11
3.6613855979
 21
4.7962828083
 31
0.0
  0
LINE
  5
3FD
330
1F
100
AcDbEntity
  8
0
  6
Continuous
 62
     7
370
    30
100
AcDbLine
 10
3.6613855979
 20
4.7962828083
 30
0.0
 11
3.6613855979
 21
4.8021392874
 31
0.0
  0
LINE
  5
3FE
330
1F
100
AcDbEntity
  8
0
  6
Continuous
 62
     7
370
    30
100
AcDbLine
 10
3.6613855979
 20
4.8021392874
 30
0.0
 11
3.6817460693
 21
4.8138944116
 31
0.0
  0
LINE
  5
3FF
330
1F
100
AcDbEntity
  8
0
  6
Continuous
 62
     7
370
    30
100
AcDbLine
 10
3.6817460693
 20
4.8138944116
 30
0.0
 11
3.6817460693
 21
4.8197511839
 31
0.0
  0
LINE
  5
400
330
1F
100
AcDbEntity
  8
0
  6
Continuous
 62
     7
370
    30
100
AcDbLine
 10
3.6817460693
 20
4.8197511839
 30
0.0
 11
3.6613855979
 21
4.8315062348
 31
0.0
  0
LINE
  5
401
330
1F
100
AcDbEntity
  8
0
  6
Continuous
 62
     7
370
    30
100
AcDbLine
 10
3.6613855979
 20
4.8373627138
 30
0.0
 11
3.6817460693
 21
4.849117838
 31
0.0
  0
LINE
  5
402
330
1F
100
AcDbEntity
  8
0
  6
Continuous
 62
     7
370
    30
100
AcDbLine
 10
5.1613856898
 20
4.9782564195
 30
0.0
 11
5.1817460145
 21
4.9900114704
 31
0.0
  0
LINE
  5
403
330
1F
100
AcDbEntity
  8
0
  6
Continuous
 62
     7
370
    30
100
AcDbLine
 10
5.1613856898
 20
4.9723999405
 30
0.0
 11
5.1613856898
 21
4.9782564195
 31
0.0
  0
LINE
  5
404
330
1F
100
AcDbEntity
  8
0
  6
Continuous
 62
     7
370
    30
100
AcDbLine
 10
5.1817460145
 20
4.9606448896
 30
0.0
 11
5.1613856898
 21
4.9723999405
 31
0.0
  0
LINE
  5
405
330
1F
100
AcDbEntity
  8
0
  6
Continuous
 62
     7
370
    30
100
AcDbLine
 10
5.1817460145
 20
4.9547880439
 30
0.0
 11
5.1817460145
 21
4.9606448896
 31
0.0
  0
LINE
  5
406
330
1F
100
AcDbEntity
  8
0
  6
Continuous
 62
     7
370
    30
100
AcDbLine
 10
5.1613856898
 20
4.9430329931
 30
0.0
 11
5.1817460145
 21
4.9547880439
 31
0.0
  0
LINE
  5
407
330
1F
100
AcDbEntity
  8
0
  6
Continuous
 62
     7
370
    30
100
AcDbLine
 10
5.1613856898
 20
4.9371765141
 30
0.0
 11
5.1613856898
 21
4.9430329931
 31
0.0
  0
LINE
  5
408
330
1F
100
AcDbEntity
  8
0
  6
Continuous
 62
     7
370
    30
100
AcDbLine
 10
5.1817460145
 20
4.9254214632
 30
0.0
 11
5.1613856898
 21
4.9371765141
 31
0.0
  0
LINE
  5
409
330
1F
100
AcDbEntity
  8
0
  6
Continuous
 62
     7
370
    30
100
AcDbLine
 10
5.1817460145
 20
4.9195646175
 30
0.0
 11
5.1817460145
 21
4.9254214632
 31
0.0
  0
LINE
  5
40A
330
1F
100
AcDbEntity
  8
0
  6
Continuous
 62
     7
370
    30
100
AcDbLine
 10
5.1613856898
 20
4.9078095666
 30
0.0
 11
5.1817460145
 21
4.9195646175
 31
0.0
  0
LINE
  5
40B
330
1F
100
AcDbEntity
  8
0
  6
Continuous
 62
     7
370
    30
100
AcDbLine
 10
5.1613856898
 20
4.9019530876
 30
0.0
 11
5.1613856898
 21
4.9078095666
 31
0.0
  0
LINE
  5
40C
330
1F
100
AcDbEntity
  8
0
  6
Continuous
 62
     7
370
    30
100
AcDbLine
 10
5.1817460145
 20
4.8901980368
 30
0.0
 11
5.1613856898
 21
4.9019530876
 31
0.0
  0
LINE
  5
40D
330
1F
100
AcDbEntity
  8
0
  6
Continuous
 62
     7
370
    30
100
AcDbLine
 10
5.1817460145
 20
4.8843412644
 30
0.0
 11
5.1817460145
 21
4.8901980368
 31
0.0
  0
LINE
  5
40E
330
1F
100
AcDbEntity
  8
0
  6
Continuous
 62
     7
370
    30
100
AcDbLine
 10
5.1613856898
 20
4.8725861402
 30
0.0
 11
5.1817460145
 21
4.8843412644
 31
0.0
  0
LINE
  5
40F
330
1F
100
AcDbEntity
  8
0
  6
Continuous
 62
     7
370
    30
100
AcDbLine
 10
5.1613856898
 20
4.8667296612
 30
0.0
 11
5.1613856898
 21
4.8725861402
 31
0.0
  0
LINE
  5
410
330
1F
100
AcDbEntity
  8
0
  6
Continuous
 62
     7
370
    30
100
AcDbLine
 10
5.1817460145
 20
4.8549746103
 30
0.0
 11
5.1613856898
 21
4.8667296612
 31
0.0
  0
LINE
  5
411
330
1F
100
AcDbEntity
  8
0
  6
Continuous
 62
     7
370
    30
100
AcDbLine
 10
5.1817460145
 20
4.849117838
 30
0.0
 11
5.1817460145
 21
4.8549746103
 31
0.0
  0
LINE
  5
412
330
1F
100
AcDbEntity
  8
0
  6
Continuous
 62
     7
370
    30
100
AcDbLine
 10
5.1613856898
 20
4.8373627138
 30
0.0
 11
5.1817460145
 21
4.849117838
 31
0.0
  0
ARC
  5
413
330
1F
100
AcDbEntity
  8
0
  6
Continuous
 62
     7
370
    30
100
AcDbCircle
 10
5.0673158452
 20
4.9280114995
 30
0.0
 40
0.0620000000000003
100
AcDbArc
 50
90.0
 51
180.0
  0
LINE
  5
414
330
1F
100
AcDbEntity
  8
0
  6
Continuous
 62
     7
370
    30
100
AcDbLine
 10
5.005315826
 20
4.9280114933
 30
0.0
 11
5.005315826
 21
4.926422525
 31
0.0
  0
ARC
  5
415
330
1F
100
AcDbEntity
  8
0
  6
Continuous
 62
     7
370
    30
100
AcDbCircle
 10
5.0153158452
 20
4.9264225202
 30
0.0
 40
0.0099999999999989
100
AcDbArc
 50
180.0
 51
293.2698239585
  0
ARC
  5
416
330
1F
100
AcDbEntity
  8
0
  6
Continuous
 62
     7
370
    30
100
AcDbCircle
 10
5.0473158452
 20
4.8520114995
 30
0.0
 40
0.0710000000000115
100
AcDbArc
 50
307.5815576188
 51
113.2698239585
  0
ARC
  5
417
330
1F
100
AcDbEntity
  8
0
  6
Continuous
 62
     7
370
    30
100
AcDbCircle
 10
5.1028158452
 20
4.7798952739
 30
0.0
 40
0.0199999999999987
100
AcDbArc
 50
127.5815576187
 51
180.0
  0
LINE
  5
418
330
1F
100
AcDbEntity
  8
0
  6
Continuous
 62
     7
370
    30
100
AcDbLine
 10
5.0828158707
 20
4.779895271
 30
0.0
 11
5.0828158707
 21
4.6150115024
 31
0.0
  0
LINE
  5
419
330
1F
100
AcDbEntity
  8
0
  6
Continuous
 62
     7
370
    30
100
AcDbLine
 10
5.4278158486
 20
4.6150115024
 30
0.0
 11
5.0828158707
 21
4.6150115024
 31
0.0
  0
LINE
  5
41A
330
1F
100
AcDbEntity
  8
0
  6
Continuous
 62
     7
370
    30
100
AcDbLine
 10
5.4278158486
 20
4.6150115024
 30
0.0
 11
5.4278158486
 21
4.779895271
 31
0.0
  0
ARC
  5
41B
330
1F
100
AcDbEntity
  8
0
  6
Continuous
 62
     7
370
    30
100
AcDbCircle
 10
5.4078158452
 20
4.7798952739
 30
0.0
 40
0.0200000000000005
100
AcDbArc
 50
0.0
 51
52.4184423812
  0
ARC
  5
41C
330
1F
100
AcDbEntity
  8
0
  6
Continuous
 62
     7
370
    30
100
AcDbCircle
 10
5.4633158452
 20
4.8520114995
 30
0.0
 40
0.0710000000000076
100
AcDbArc
 50
66.7301760415
 51
232.4184423812
  0
ARC
  5
41D
330
1F
100
AcDbEntity
  8
0
  6
Continuous
 62
     7
370
    30
100
AcDbCircle
 10
5.4953158452
 20
4.9264225202
 30
0.0
 40
0.0099999999999909
100
AcDbArc
 50
246.7301760415
 51
0.0
  0
LINE
  5
41E
330
1F
100
AcDbEntity
  8
0
  6
Continuous
 62
     7
370
    30
100
AcDbLine
 10
5.5053158566
 20
4.9280114933
 30
0.0
 11
5.5053158566
 21
4.926422525
 31
0.0
  0
ARC
  5
41F
330
1F
100
AcDbEntity
  8
0
  6
Continuous
 62
     7
370
    30
100
AcDbCircle
 10
5.4433158452
 20
4.9280114995
 30
0.0
 40
0.0619999999999994
100
AcDbArc
 50
0.0
 51
90.0
  0
LINE
  5
420
330
1F
100
AcDbEntity
  8
0
  6
Continuous
 62
     7
370
    30
100
AcDbLine
 10
5.4433158429
 20
4.9900114704
 30
0.0
 11
5.3461966081
 21
4.9900114704
 31
0.0
  0
LINE
  5
421
330
1F
100
AcDbEntity
  8
0
  6
Continuous
 62
     7
370
    30
100
AcDbLine
 10
5.3461966081
 20
4.9900114704
 30
0.0
 11
5.3289165411
 21
4.980034879
 31
0.0
  0
LINE
  5
422
330
1F
100
AcDbEntity
  8
0
  6
Continuous
 62
     7
370
    30
100
AcDbLine
 10
5.3289165411
 20
4.980034879
 30
0.0
 11
5.3289165411
 21
4.9741780333
 31
0.0
  0
LINE
  5
423
330
1F
100
AcDbEntity
  8
0
  6
Continuous
 62
     7
370
    30
100
AcDbLine
 10
5.3289165411
 20
4.9741780333
 30
0.0
 11
5.3492769392
 21
4.9624229824
 31
0.0
  0
LINE
  5
424
330
1F
100
AcDbEntity
  8
0
  6
Continuous
 62
     7
370
    30
100
AcDbLine
 10
5.3492769392
 20
4.9565665034
 30
0.0
 11
5.3289165411
 21
4.9448114525
 31
0.0
  0
LINE
  5
425
330
1F
100
AcDbEntity
  8
0
  6
Continuous
 62
     7
370
    30
100
AcDbLine
 10
5.3289165411
 20
4.9448114525
 30
0.0
 11
5.3289165411
 21
4.9389546069
 31
0.0
  0
LINE
  5
426
330
1F
100
AcDbEntity
  8
0
  6
Continuous
 62
     7
370
    30
100
AcDbLine
 10
5.3289165411
 20
4.9389546069
 30
0.0
 11
5.3492769392
 21
4.927199556
 31
0.0
  0
LINE
  5
427
330
1F
100
AcDbEntity
  8
0
  6
Continuous
 62
     7
370
    30
100
AcDbLine
 10
5.3492769392
 20
4.927199556
 30
0.0
 11
5.3492769392
 21
4.921343077
 31
0.0
  0
LINE
  5
428
330
1F
100
AcDbEntity
  8
0
  6
Continuous
 62
     7
370
    30
100
AcDbLine
 10
5.3492769392
 20
4.921343077
 30
0.0
 11
5.3289165411
 21
4.9095880261
 31
0.0
  0
LINE
  5
429
330
1F
100
AcDbEntity
  8
0
  6
Continuous
 62
     7
370
    30
100
AcDbLine
 10
5.3289165411
 20
4.9095880261
 30
0.0
 11
5.3289165411
 21
4.9037311804
 31
0.0
  0
LINE
  5
42A
330
1F
100
AcDbEntity
  8
0
  6
Continuous
 62
     7
370
    30
100
AcDbLine
 10
5.3289165411
 20
4.9037311804
 30
0.0
 11
5.3492769392
 21
4.8919761296
 31
0.0
  0
LINE
  5
42B
330
1F
100
AcDbEntity
  8
0
  6
Continuous
 62
     7
370
    30
100
AcDbLine
 10
5.3492769392
 20
4.8919761296
 30
0.0
 11
5.3492769392
 21
4.8861196505
 31
0.0
  0
LINE
  5
42C
330
1F
100
AcDbEntity
  8
0
  6
Continuous
 62
     7
370
    30
100
AcDbLine
 10
5.3492769392
 20
4.8861196505
 30
0.0
 11
5.3289165411
 21
4.8743645997
 31
0.0
  0
LINE
  5
42D
330
1F
100
AcDbEntity
  8
0
  6
Continuous
 62
     7
370
    30
100
AcDbLine
 10
5.3289165411
 20
4.8743645997
 30
0.0
 11
5.3289165411
 21
4.868507754
 31
0.0
  0
LINE
  5
42E
330
1F
100
AcDbEntity
  8
0
  6
Continuous
 62
     7
370
    30
100
AcDbLine
 10
5.3289165411
 20
4.868507754
 30
0.0
 11
5.3492769392
 21
4.8567527031
 31
0.0
  0
LINE
  5
42F
330
1F
100
AcDbEntity
  8
0
  6
Continuous
 62
     7
370
    30
100
AcDbLine
 10
5.3492769392
 20
4.8567527031
 30
0.0
 11
5.3492769392
 21
4.8508962241
 31
0.0
  0
LINE
  5
430
330
1F
100
AcDbEntity
  8
0
  6
Continuous
 62
     7
370
    30
100
AcDbLine
 10
5.3492769392
 20
4.8508962241
 30
0.0
 11
5.3289165411
 21
4.8391411732
 31
0.0
  0
LINE
  5
431
330
1F
100
AcDbEntity
  8
0
  6
Continuous
 62
     7
370
    30
100
AcDbLine
 10
5.3289165411
 20
4.8391411732
 30
0.0
 11
5.3289165411
 21
4.8332843276
 31
0.0
  0
LINE
  5
432
330
1F
100
AcDbEntity
  8
0
  6
Continuous
 62
     7
370
    30
100
AcDbLine
 10
5.3289165411
 20
4.8332843276
 30
0.0
 11
5.3492769392
 21
4.8215292767
 31
0.0
  0
LINE
  5
433
330
1F
100
AcDbEntity
  8
0
  6
Continuous
 62
     7
370
    30
100
AcDbLine
 10
5.3492769392
 20
4.8215292767
 30
0.0
 11
5.3492769392
 21
4.8156727977
 31
0.0
  0
LINE
  5
434
330
1F
100
AcDbEntity
  8
0
  6
Continuous
 62
     7
370
    30
100
AcDbLine
 10
5.3492769392
 20
4.8156727977
 30
0.0
 11
5.3289165411
 21
4.8039177468
 31
0.0
  0
LINE
  5
435
330
1F
100
AcDbEntity
  8
0
  6
Continuous
 62
     7
370
    30
100
AcDbLine
 10
5.3289165411
 20
4.8039177468
 30
0.0
 11
5.3289165411
 21
4.7980609011
 31
0.0
  0
LINE
  5
436
330
1F
100
AcDbEntity
  8
0
  6
Continuous
 62
     7
370
    30
100
AcDbLine
 10
5.3289165411
 20
4.7980609011
 30
0.0
 11
5.3492769392
 21
4.7863058503
 31
0.0
  0
LINE
  5
437
330
1F
100
AcDbEntity
  8
0
  6
Continuous
 62
     7
370
    30
100
AcDbLine
 10
5.3289165411
 20
4.7686943204
 30
0.0
 11
5.3289165411
 21
4.762837548
 31
0.0
  0
LINE
  5
438
330
1F
100
AcDbEntity
  8
0
  6
Continuous
 62
     7
370
    30
100
AcDbLine
 10
5.3289165411
 20
4.762837548
 30
0.0
 11
5.3492769392
 21
4.7510824238
 31
0.0
  0
LINE
  5
439
330
1F
100
AcDbEntity
  8
0
  6
Continuous
 62
     7
370
    30
100
AcDbLine
 10
5.3492769392
 20
4.7510824238
 30
0.0
 11
5.3492769392
 21
4.7452259448
 31
0.0
  0
LINE
  5
43A
330
1F
100
AcDbEntity
  8
0
  6
Continuous
 62
     7
370
    30
100
AcDbLine
 10
5.3492769392
 20
4.7452259448
 30
0.0
 11
5.3446756924
 21
4.7425694022
 31
0.0
  0
ARC
  5
43B
330
1F
100
AcDbEntity
  8
0
  6
Continuous
 62
     7
370
    30
100
AcDbCircle
 10
5.3543487802
 20
4.7400335217
 30
0.0
 40
0.0100000000000089
100
AcDbArc
 50
165.3098749059
 51
203.8403348298
  0
ARC
  5
43C
330
1F
100
AcDbEntity
  8
0
  6
Continuous
 62
     7
370
    30
100
AcDbCircle
 10
5.3373158452
 20
4.7060114995
 30
0.0
 40
0.0310000000000004
100
AcDbArc
 50
270.0
 51
75.2623825484
  0
LINE
  5
43D
330
1F
100
AcDbEntity
  8
0
  6
Continuous
 62
     7
370
    30
100
AcDbLine
 10
5.3373158241
 20
4.6750114826
 30
0.0
 11
5.1733158586
 21
4.6750114826
 31
0.0
  0
ARC
  5
43E
330
1F
100
AcDbEntity
  8
0
  6
Continuous
 62
     7
370
    30
100
AcDbCircle
 10
5.1733158452
 20
4.7060114995
 30
0.0
 40
0.0310000000000006
100
AcDbArc
 50
95.4495226951
 51
270.0
  0
LINE
  5
43F
330
1F
100
AcDbEntity
  8
0
  6
Continuous
 62
     7
370
    30
100
AcDbLine
 10
5.1817468212
 20
4.7434387588
 30
0.0
 11
5.1817468212
 21
4.749303891
 31
0.0
  0
LINE
  5
440
330
1F
100
AcDbEntity
  8
0
  6
Continuous
 62
     7
370
    30
100
AcDbLine
 10
5.1817468212
 20
4.749303891
 30
0.0
 11
5.1613856898
 21
4.7610593819
 31
0.0
  0
LINE
  5
441
330
1F
100
AcDbEntity
  8
0
  6
Continuous
 62
     7
370
    30
100
AcDbLine
 10
5.1613856898
 20
4.7610593819
 30
0.0
 11
5.1613856898
 21
4.7669159343
 31
0.0
  0
LINE
  5
442
330
1F
100
AcDbEntity
  8
0
  6
Continuous
 62
     7
370
    30
100
AcDbLine
 10
5.1613856898
 20
4.7669159343
 30
0.0
 11
5.1817460145
 21
4.7786709851
 31
0.0
  0
LINE
  5
443
330
1F
100
AcDbEntity
  8
0
  6
Continuous
 62
     7
370
    30
100
AcDbLine
 10
5.1817460145
 20
4.7786709851
 30
0.0
 11
5.1817460145
 21
4.7845277575
 31
0.0
  0
LINE
  5
444
330
1F
100
AcDbEntity
  8
0
  6
Continuous
 62
     7
370
    30
100
AcDbLine
 10
5.1817460145
 20
4.7845277575
 30
0.0
 11
5.1613856898
 21
4.7962828083
 31
0.0
  0
LINE
  5
445
330
1F
100
AcDbEntity
  8
0
  6
Continuous
 62
     7
370
    30
100
AcDbLine
 10
5.1613856898
 20
4.7962828083
 30
0.0
 11
5.1613856898
 21
4.8021392874
 31
0.0
  0
LINE
  5
446
330
1F
100
AcDbEntity
  8
0
  6
Continuous
 62
     7
370
    30
100
AcDbLine
 10
5.1613856898
 20
4.8021392874
 30
0.0
 11
5.1817460145
 21
4.8138944116
 31
0.0
  0
LINE
  5
447
330
1F
100
AcDbEntity
  8
0
  6
Continuous
 62
     7
370
    30
100
AcDbLine
 10
5.1817460145
 20
4.8138944116
 30
0.0
 11
5.1817460145
 21
4.8197511839
 31
0.0
  0
LINE
  5
448
330
1F
100
AcDbEntity
  8
0
  6
Continuous
 62
     7
370
    30
100
AcDbLine
 10
5.1613856898
 20
4.8315062348
 30
0.0
 11
5.1613856898
 21
4.8373627138
 31
0.0
  0
LINE
  5
449
330
1F
100
AcDbEntity
  8
0
  6
Continuous
 62
     7
370
    30
100
AcDbLine
 10
5.3492769392
 20
4.7804493713
 30
0.0
 11
5.3289165411
 21
4.7686943204
 31
0.0
  0
LINE
  5
44A
330
1F
100
AcDbEntity
  8
0
  6
Continuous
 62
     7
370
    30
100
AcDbLine
 10
5.1703717793
 20
4.7368713947
 30
0.0
 11
5.1817468212
 21
4.7434387588
 31
0.0
  0
LINE
  5
44B
330
1F
100
AcDbEntity
  8
0
  6
Continuous
 62
     7
370
    30
100
AcDbLine
 10
5.3492769392
 20
4.9624229824
 30
0.0
 11
5.3492769392
 21
4.9565665034
 31
0.0
  0
LINE
  5
44C
330
1F
100
AcDbEntity
  8
0
  6
Continuous
 62
     7
370
    30
100
AcDbLine
 10
5.3492769392
 20
4.7863058503
 30
0.0
 11
5.3492769392
 21
4.7804493713
 31
0.0
  0
LINE
  5
44D
330
1F
100
AcDbEntity
  8
0
  6
Continuous
 62
     7
370
    30
100
AcDbLine
 10
5.1817460145
 20
4.9900114704
 30
0.0
 11
5.0673158765
 21
4.9900114704
 31
0.0
  0
LINE
  5
44E
330
1F
100
AcDbEntity
  8
0
  6
Continuous
 62
     7
370
    30
100
AcDbLine
 10
5.1817460145
 20
4.8197511839
 30
0.0
 11
5.1613856898
 21
4.8315062348
 31
0.0
  0
LINE
  5
44F
330
1F
100
AcDbEntity
  8
0
  6
Continuous
 62
     7
370
    30
100
AcDbLine
 10
4.3290992977
 20
6.4770613385
 30
0.0
 11
4.3290992977
 21
6.5170612764
 31
0.0
  0
LINE
  5
450
330
1F
100
AcDbEntity
  8
0
  6
Continuous
 62
     7
370
    30
100
AcDbLine
 10
2.9850993304
 20
6.4770613385
 30
0.0
 11
4.3290992977
 21
6.4770613385
 31
0.0
  0
LINE
  5
451
330
1F
100
AcDbEntity
  8
0
  6
Continuous
 62
     7
370
    30
100
AcDbLine
 10
2.9850993304
 20
6.5170612764
 30
0.0
 11
2.9850993304
 21
6.4770613385
 31
0.0
  0
LINE
  5
452
330
1F
100
AcDbEntity
  8
0
  6
Continuous
 62
     7
370
    30
100
AcDbLine
 10
2.9850993304
 20
6.5170612764
 30
0.0
 11
4.3290992977
 21
6.5170612764
 31
0.0
  0
LINE
  5
453
330
1F
100
AcDbEntity
  8
0
  6
Continuous
 62
     7
370
    30
100
AcDbLine
 10
2.9234390294
 20
6.4615421311
 30
0.0
 11
2.9632198498
 21
6.4573610061
 31
0.0
  0
SPLINE
  5
454
330
1F
100
AcDbEntity
  8
0
  6
Continuous
 62
     7
370
    30
100
AcDbSpline
210
0.0
220
0.0
230
1.0
 70
     8
 71
     3
 72
    14
 73
    10
 74
     0
 42
0.00000001
 43
0.00000001
 12
1.0
 22
0.0
 32
0.0
 13
1.0
 23
0.0
 33
0.0
 40
0.0
 40
0.0
 40
0.0
 40
0.0
 40
0.1552718471269387
 40
0.2906397107882629
 40
0.4065560309594949
 40
0.5037771038782086
 40
0.6158227279562382
 40
0.7325492909031175
 40
1.0
 40
1.0
 40
1.0
 40
1.0
 10
2.923439029368427
 20
6.461542131123534
 30
0.0
 10
2.924567292859714
 20
6.467456918165666
 30
0.0
 10
2.926679190031467
 20
6.478528287683762
 30
0.0
 10
2.934709365153291
 20
6.492051702452768
 30
0.0
 10
2.943590797776006
 20
6.501632660437651
 30
0.0
 10
2.95317874572664
 20
6.508591863492265
 30
0.0
 10
2.962840458514228
 20
6.513241502129954
 30
0.0
 10
2.975694271013141
 20
6.516880800683492
 30
0.0
 10
2.981239168043286
 20
6.516987202927281
 30
0.0
 10
2.985099330396702
 20
6.517061276428296
 30
0.0
  0
SPLINE
  5
455
330
1F
100
AcDbEntity
  8
0
  6
Continuous
 62
     7
370
    30
100
AcDbSpline
210
0.0
220
0.0
230
1.0
 70
     8
 71
     3
 72
    12
 73
     8
 74
     0
 42
0.00000001
 43
0.00000001
 12
1.0
 22
0.0
 32
0.0
 13
1.0
 23
0.0
 33
0.0
 40
0.0
 40
0.0
 40
0.0
 40
0.0
 40
0.0982560801070864
 40
0.1890543445775932
 40
0.3530549560126027
 40
0.6099118399334703
 40
1.0
 40
1.0
 40
1.0
 40
1.0
 10
2.963219849816995
 20
6.457361006090914
 30
0.0
 10
2.963634188561357
 20
6.459480615202195
 30
0.0
 10
2.964431416983893
 20
6.463558951228394
 30
0.0
 10
2.96817209906542
 20
6.469761501722379
 30
0.0
 10
2.975287312386817
 20
6.475458718603734
 30
0.0
 10
2.981794974855606
 20
6.476930252912347
 30
0.0
 10
2.983856371185567
 20
6.477012029636613
 30
0.0
 10
2.985099330396702
 20
6.477061338510993
 30
0.0
  0
LINE
  5
456
330
1F
100
AcDbEntity
  8
0
  6
Continuous
 62
     7
370
    30
100
AcDbLine
 10
4.3510993369
 20
6.4550612993
 30
0.0
 11
4.3910994215
 21
6.4550612993
 31
0.0
  0
SPLINE
  5
457
330
1F
100
AcDbEntity
  8
0
  6
Continuous
 62
     7
370
    30
100
AcDbSpline
210
0.0
220
0.0
230
1.0
 70
     8
 71
     3
 72
    15
 73
    11
 74
     0
 42
0.00000001
 43
0.00000001
 12
1.0
 22
0.0
 32
0.0
 13
1.0
 23
0.0
 33
0.0
 40
0.0
 40
0.0
 40
0.0
 40
0.0
 40
0.1331210625528955
 40
0.2562086268675506
 40
0.3748280320195511
 40
0.4951902167593769
 40
0.5896626940509728
 40
0.7048504114301452
 40
0.8414964297370932
 40
1.0
 40
1.0
 40
1.0
 40
1.0
 10
4.329099297727725
 20
6.517061276428296
 30
0.0
 10
4.330803444455574
 20
6.517036509420064
 30
0.0
 10
4.334083294276107
 20
6.516988842123475
 30
0.0
 10
4.342298539915681
 20
6.51587839575876
 30
0.0
 10
4.352475301147747
 20
6.512882164106966
 30
0.0
 10
4.363038341305004
 20
6.507423088333138
 30
0.0
 10
4.373021757536648
 20
6.49941290272603
 30
0.0
 10
4.381842756922512
 20
6.488746522799064
 30
0.0
 10
4.389410580532278
 20
6.473644092266313
 30
0.0
 10
4.390509351049343
 20
6.461554010703744
 30
0.0
 10
4.391099421497004
 20
6.455061299323989
 30
0.0
  0
SPLINE
  5
458
330
1F
100
AcDbEntity
  8
0
  6
Continuous
 62
     7
370
    30
100
AcDbSpline
210
0.0
220
0.0
230
1.0
 70
     8
 71
     3
 72
    13
 73
     9
 74
     0
 42
0.00000001
 43
0.00000001
 12
1.0
 22
0.0
 32
0.0
 13
1.0
 23
0.0
 33
0.0
 40
0.0
 40
0.0
 40
0.0
 40
0.0
 40
0.3814836785019411
 40
0.6474496378187834
 40
0.7247026306609098
 40
0.8080616159887369
 40
0.8993782515930032
 40
1.0
 40
1.0
 40
1.0
 40
1.0
 10
4.329099297727725
 20
6.477061338510993
 30
0.0
 10
4.330270869469632
 20
6.477047346422785
 30
0.0
 10
4.332259247328823
 20
6.477023599214313
 30
0.0
 10
4.338809615349993
 20
6.47538274271774
 30
0.0
 10
4.344494417890213
 20
6.470994687487801
 30
0.0
 10
4.347696501626864
 20
6.467191788887391
 30
0.0
 10
4.350461825311561
 20
6.461822364861347
 30
0.0
 10
4.350880074188772
 20
6.457386668231365
 30
0.0
 10
4.351099336914728
 20
6.455061299323989
 30
0.0
  0
LINE
  5
459
330
1F
100
AcDbEntity
  8
0
  6
Continuous
 62
     7
370
    30
100
AcDbLine
 10
2.962081143
 20
6.4465265713
 30
0.0
 11
2.9223003225
 21
6.4507076963
 31
0.0
  0
LWPOLYLINE
  5
45A
330
1F
100
AcDbEntity
  8
0
  6
Continuous
 62
     7
370
    30
100
AcDbPolyline
 90
        9
 70
   128
 43
0.0
 10
2.9632198498
 20
6.4573610061
 10
2.9630787581
 20
6.4560181416
 10
2.9629370798
 20
6.4546705838
 10
2.9627951081
 20
6.4533192128
 10
2.9626525497
 20
6.4519646151
 10
2.9625099914
 20
6.4506073774
 10
2.9623671397
 20
6.4492480865
 10
2.962224288
 20
6.4478876222
 10
2.962081143
 20
6.4465265713
  0
LWPOLYLINE
  5
45B
330
1F
100
AcDbEntity
  8
0
  6
Continuous
 62
     7
370
    30
100
AcDbPolyline
 90
        9
 70
   128
 43
0.0
 10
2.9234390294
 20
6.4615421311
 10
2.9232979377
 20
6.4601992666
 10
2.9231562593
 20
6.4588517089
 10
2.9230142876
 20
6.4575003378
 10
2.9228717293
 20
6.4561457401
 10
2.9227291709
 20
6.4547885025
 10
2.9225863192
 20
6.4534292115
 10
2.9224431742
 20
6.4520687472
 10
2.9223003225
 20
6.4507076963
  0
LINE
  5
45C
330
1F
100
AcDbEntity
  8
0
  6
Continuous
 62
     7
370
    30
100
AcDbLine
 10
4.3910994215
 20
6.4478533026
 30
0.0
 11
4.3910994215
 21
6.4550612993
 31
0.0
  0
LINE
  5
45D
330
1F
100
AcDbEntity
  8
0
  6
Continuous
 62
     7
370
    30
100
AcDbLine
 10
4.3510993369
 20
6.4478533026
 30
0.0
 11
4.3910994215
 21
6.4478533026
 31
0.0
  0
LINE
  5
45E
330
1F
100
AcDbEntity
  8
0
  6
Continuous
 62
     7
370
    30
100
AcDbLine
 10
4.3510993369
 20
6.4478533026
 30
0.0
 11
4.3510993369
 21
6.4550612993
 31
0.0
  0
LINE
  5
45F
330
1F
100
AcDbEntity
  8
0
  6
Continuous
 62
     7
370
    30
100
AcDbLine
 10
2.7804098817
 20
4.7180402722
 30
0.0
 11
2.7406290612
 21
4.7222214706
 31
0.0
  0
LINE
  5
460
330
1F
100
AcDbEntity
  8
0
  6
Continuous
 62
     7
370
    30
100
AcDbLine
 10
2.962081143
 20
6.4465265713
 30
0.0
 11
2.7804098817
 21
4.7180402722
 31
0.0
  0
LINE
  5
461
330
1F
100
AcDbEntity
  8
0
  6
Continuous
 62
     7
370
    30
100
AcDbLine
 10
2.9223003225
 20
6.4507076963
 30
0.0
 11
2.7406290612
 21
4.7222214706
 31
0.0
  0
LINE
  5
462
330
1F
100
AcDbEntity
  8
0
  6
Continuous
 62
     7
370
    30
100
AcDbLine
 10
4.3910994215
 20
5.6020114738
 30
0.0
 11
4.3910994215
 21
6.4478533026
 31
0.0
  0
LINE
  5
463
330
1F
100
AcDbEntity
  8
0
  6
Continuous
 62
     7
370
    30
100
AcDbLine
 10
4.3510993369
 20
5.6960115479
 30
0.0
 11
4.3510993369
 21
6.4478533026
 31
0.0
  0
LINE
  5
464
330
1F
100
AcDbEntity
  8
0
  6
Continuous
 62
     7
370
    30
100
AcDbLine
 10
7.7030994143
 20
6.5170612764
 30
0.0
 11
7.7030994143
 21
6.4770613385
 31
0.0
  0
LINE
  5
465
330
1F
100
AcDbEntity
  8
0
  6
Continuous
 62
     7
370
    30
100
AcDbLine
 10
7.6410992906
 20
6.4550612993
 30
0.0
 11
7.6810993751
 21
6.4550612993
 31
0.0
  0
SPLINE
  5
466
330
1F
100
AcDbEntity
  8
0
  6
Continuous
 62
     7
370
    30
100
AcDbSpline
210
0.0
220
0.0
230
1.0
 70
     8
 71
     3
 72
    13
 73
     9
 74
     0
 42
0.00000001
 43
0.00000001
 12
1.0
 22
0.0
 32
0.0
 13
1.0
 23
0.0
 33
0.0
 40
0.0
 40
0.0
 40
0.0
 40
0.0
 40
0.0986570173292775
 40
0.1888797315635921
 40
0.2721442366812526
 40
0.3502638073870024
 40
0.6095148110731221
 40
1.0
 40
1.0
 40
1.0
 40
1.0
 10
7.681099375136793
 20
6.455061299323989
 30
0.0
 10
7.681313012484735
 20
6.457356629675298
 30
0.0
 10
7.681722023075402
 20
6.461751059917985
 30
0.0
 10
7.684446099295839
 20
6.467101736507781
 30
0.0
 10
7.687628602461015
 20
6.470927408357831
 30
0.0
 10
7.693281280438552
 20
6.475311733131545
 30
0.0
 10
7.699634264321889
 20
6.476972110556575
 30
0.0
 10
7.701798643375259
 20
6.477027843530736
 30
0.0
 10
7.703099414323797
 20
6.477061338510993
 30
0.0
  0
SPLINE
  5
467
330
1F
100
AcDbEntity
  8
0
  6
Continuous
 62
     7
370
    30
100
AcDbSpline
210
0.0
220
0.0
230
1.0
 70
     8
 71
     3
 72
    14
 73
    10
 74
     0
 42
0.00000001
 43
0.00000001
 12
1.0
 22
0.0
 32
0.0
 13
1.0
 23
0.0
 33
0.0
 40
0.0
 40
0.0
 40
0.0
 40
0.0
 40
0.1565883761114097
 40
0.2924996598096791
 40
0.4081679001543531
 40
0.5043304508667908
 40
0.6193528429790108
 40
0.7367183480750703
 40
1.0
 40
1.0
 40
1.0
 40
1.0
 10
7.641099290554517
 20
6.455061299323989
 30
0.0
 10
7.641673906071424
 20
6.461468966876976
 30
0.0
 10
7.642747260603802
 20
6.473438185959295
 30
0.0
 10
7.650192527665182
 20
6.488481384674371
 30
0.0
 10
7.658971840922409
 20
6.499223619219367
 30
0.0
 10
7.668852301057286
 20
6.50719947374326
 30
0.0
 10
7.67914605232175
 20
6.512633074893632
 30
0.0
 10
7.693094689010299
 20
6.516873101180998
 30
0.0
 10
7.699008805904048
 20
6.516984337659178
 30
0.0
 10
7.703099414323797
 20
6.517061276428296
 30
0.0
  0
LINE
  5
468
330
1F
100
AcDbEntity
  8
0
  6
Continuous
 62
     7
370
    30
100
AcDbLine
 10
9.0470993817
 20
6.4770613385
 30
0.0
 11
9.0470993817
 21
6.5170612764
 31
0.0
  0
LINE
  5
469
330
1F
100
AcDbEntity
  8
0
  6
Continuous
 62
     7
370
    30
100
AcDbLine
 10
9.0470993817
 20
6.4770613385
 30
0.0
 11
7.7030994143
 21
6.4770613385
 31
0.0
  0
LINE
  5
46A
330
1F
100
AcDbEntity
  8
0
  6
Continuous
 62
     7
370
    30
100
AcDbLine
 10
9.0470993817
 20
6.5170612764
 30
0.0
 11
7.7030994143
 21
6.5170612764
 31
0.0
  0
SPLINE
  5
46B
330
1F
100
AcDbEntity
  8
0
  6
Continuous
 62
     7
370
    30
100
AcDbSpline
210
0.0
220
0.0
230
1.0
 70
     8
 71
     3
 72
    15
 73
    11
 74
     0
 42
0.00000001
 43
0.00000001
 12
1.0
 22
0.0
 32
0.0
 13
1.0
 23
0.0
 33
0.0
 40
0.0
 40
0.0
 40
0.0
 40
0.0
 40
0.1299543775052601
 40
0.2518652967975856
 40
0.3715600509582623
 40
0.4952007247289804
 40
0.5889969568591134
 40
0.7039657921377812
 40
0.8408245521596888
 40
1.0
 40
1.0
 40
1.0
 40
1.0
 10
9.047099381654819
 20
6.517061276428296
 30
0.0
 10
9.048502725407356
 20
6.517046962400062
 30
0.0
 10
9.051222553684998
 20
6.517019220302881
 30
0.0
 10
9.058691367343355
 20
6.516171091055213
 30
0.0
 10
9.068312306900276
 20
6.513668866304778
 30
0.0
 10
9.07845863617068
 20
6.50895908948964
 30
0.0
 10
9.088250731575624
 20
6.501924071564603
 30
0.0
 10
9.097169172476287
 20
6.49249247102868
 30
0.0
 10
9.105413863561173
 20
6.47888298367316
 30
0.0
 10
9.107589733297239
 20
6.467605794176242
 30
0.0
 10
9.108759682683093
 20
6.461542131123534
 30
0.0
  0
LINE
  5
46C
330
1F
100
AcDbEntity
  8
0
  6
Continuous
 62
     7
370
    30
100
AcDbLine
 10
9.0689788622
 20
6.4573610061
 30
0.0
 11
9.1087596827
 21
6.4615421311
 31
0.0
  0
SPLINE
  5
46D
330
1F
100
AcDbEntity
  8
0
  6
Continuous
 62
     7
370
    30
100
AcDbSpline
210
0.0
220
0.0
230
1.0
 70
     8
 71
     3
 72
    12
 73
     8
 74
     0
 42
0.00000001
 43
0.00000001
 12
1.0
 22
0.0
 32
0.0
 13
1.0
 23
0.0
 33
0.0
 40
0.0
 40
0.0
 40
0.0
 40
0.0
 40
0.3713578228043292
 40
0.6426557412825167
 40
0.804861004078245
 40
0.8977460925951075
 40
1.0
 40
1.0
 40
1.0
 40
1.0
 10
9.047099381654819
 20
6.477061338510993
 30
0.0
 10
9.048101298137317
 20
6.477044313719388
 30
0.0
 10
9.049835171345912
 20
6.477014851353455
 30
0.0
 10
9.056730927351202
 20
6.475603937607622
 30
0.0
 10
9.063919426907521
 20
6.469864401854555
 30
0.0
 10
9.06773437373775
 20
6.463675415918866
 30
0.0
 10
9.068550964291797
 20
6.459532117340178
 30
0.0
 10
9.068978862234527
 20
6.457361006090914
 30
0.0
  0
LINE
  5
46E
330
1F
100
AcDbEntity
  8
0
  6
Continuous
 62
     7
370
    30
100
AcDbLine
 10
9.0701175691
 20
6.4465265713
 30
0.0
 11
9.1098983895
 21
6.4507076963
 31
0.0
  0
LWPOLYLINE
  5
46F
330
1F
100
AcDbEntity
  8
0
  6
Continuous
 62
     7
370
    30
100
AcDbPolyline
 90
        9
 70
   128
 43
0.0
 10
9.0701175691
 20
6.4465265713
 10
9.0699744241
 20
6.4478876222
 10
9.0698315724
 20
6.4492480865
 10
9.0696887207
 20
6.4506073774
 10
9.0695461623
 20
6.4519646151
 10
9.069403604
 20
6.4533192128
 10
9.0692616323
 20
6.4546705838
 10
9.0691199539
 20
6.4560181416
 10
9.0689788622
 20
6.4573610061
  0
LWPOLYLINE
  5
470
330
1F
100
AcDbEntity
  8
0
  6
Continuous
 62
     7
370
    30
100
AcDbPolyline
 90
        9
 70
   128
 43
0.0
 10
9.1098983895
 20
6.4507076963
 10
9.1097555378
 20
6.4520687472
 10
9.1096123928
 20
6.4534292115
 10
9.1094695411
 20
6.4547885025
 10
9.1093269828
 20
6.4561457401
 10
9.1091844244
 20
6.4575003378
 10
9.1090424527
 20
6.4588517089
 10
9.1089007744
 20
6.4601992666
 10
9.1087596827
 20
6.4615421311
  0
LINE
  5
471
330
1F
100
AcDbEntity
  8
0
  6
Continuous
 62
     7
370
    30
100
AcDbLine
 10
7.6810993751
 20
6.4478533026
 30
0.0
 11
7.6410992906
 21
6.4478533026
 31
0.0
  0
LINE
  5
472
330
1F
100
AcDbEntity
  8
0
  6
Continuous
 62
     7
370
    30
100
AcDbLine
 10
7.6810993751
 20
6.4550612993
 30
0.0
 11
7.6810993751
 21
6.4478533026
 31
0.0
  0
LINE
  5
473
330
1F
100
AcDbEntity
  8
0
  6
Continuous
 62
     7
370
    30
100
AcDbLine
 10
7.6410992906
 20
6.4550612993
 30
0.0
 11
7.6410992906
 21
6.4478533026
 31
0.0
  0
LINE
  5
474
330
1F
100
AcDbEntity
  8
0
  6
Continuous
 62
     7
370
    30
100
AcDbLine
 10
7.6810993751
 20
6.4478533026
 30
0.0
 11
7.6810993751
 21
5.6960115479
 31
0.0
  0
LINE
  5
475
330
1F
100
AcDbEntity
  8
0
  6
Continuous
 62
     7
370
    30
100
AcDbLine
 10
7.6410992906
 20
6.4478533026
 30
0.0
 11
7.6410992906
 21
5.6020114738
 31
0.0
  0
LINE
  5
476
330
1F
100
AcDbEntity
  8
0
  6
Continuous
 62
     7
370
    30
100
AcDbLine
 10
9.2517888304
 20
4.7180402722
 30
0.0
 11
9.2915696508
 21
4.7222214706
 31
0.0
  0
LINE
  5
477
330
1F
100
AcDbEntity
  8
0
  6
Continuous
 62
     7
370
    30
100
AcDbLine
 10
9.2517888304
 20
4.7180402722
 30
0.0
 11
9.0701175691
 21
6.4465265713
 31
0.0
  0
LINE
  5
478
330
1F
100
AcDbEntity
  8
0
  6
Continuous
 62
     7
370
    30
100
AcDbLine
 10
9.2915696508
 20
4.7222214706
 30
0.0
 11
9.1098983895
 21
6.4507076963
 31
0.0
  0
LINE
  5
479
330
1F
100
AcDbEntity
  8
0
  6
Continuous
 62
     7
370
    30
100
AcDbLine
 10
8.0795993983
 20
4.6150115024
 30
0.0
 11
8.0828159078
 21
4.6150115024
 31
0.0
  0
LINE
  5
47A
330
1F
100
AcDbEntity
  8
0
  6
Continuous
 62
     7
370
    30
100
AcDbLine
 10
8.4278157757
 20
4.6150115024
 30
0.0
 11
8.4472331914
 21
4.6150115024
 31
0.0
  0
ARC
  5
47B
330
1F
100
AcDbEntity
  8
0
  6
Continuous
 62
     7
370
    30
100
AcDbCircle
 10
8.2788273729
 20
4.84217652
 30
0.0
 40
0.3354683890027901
100
AcDbArc
 50
260.8464534031
 51
266.3500314877
  0
LWPOLYLINE
  5
47C
330
1F
100
AcDbEntity
  8
0
  6
Continuous
 62
     7
370
    30
100
AcDbPolyline
 90
        3
 70
   128
 43
0.0
 10
8.2574711568
 20
4.507388599
 10
8.2637799506
 20
4.5080114118
 10
8.2660993105
 20
4.5082910286
  0
ARC
  5
47D
330
1F
100
AcDbEntity
  8
0
  6
Continuous
 62
     7
370
    30
100
AcDbCircle
 10
8.2917789752
 20
4.6854494522
 30
0.0
 40
0.178731544618586
100
AcDbArc
 50
274.9651719648
 51
290.4679912905
  0
ARC
  5
47E
330
1F
100
AcDbEntity
  8
0
  6
Continuous
 62
     7
370
    30
100
AcDbCircle
 10
8.3470345422
 20
4.62915917
 30
0.0
 40
0.1113933183105842
100
AcDbArc
 50
266.2713751179
 51
273.7286248821
  0
ARC
  5
47F
330
1F
100
AcDbEntity
  8
0
  6
Continuous
 62
     7
370
    30
100
AcDbCircle
 10
8.2530488032
 20
4.8450294649
 30
0.0
 40
0.3383361125033277
100
AcDbArc
 50
273.673730463
 51
284.8552184663
  0
ARC
  5
480
330
1F
100
AcDbEntity
  8
0
  6
Continuous
 62
     7
370
    30
100
AcDbCircle
 10
8.2926758592
 20
4.7177127772
 30
0.0
 40
0.2110886059288254
100
AcDbArc
 50
251.1027609778
 51
265.1224177631
  0
ARC
  5
481
330
1F
100
AcDbEntity
  8
0
  6
Continuous
 62
     7
370
    30
100
AcDbCircle
 10
8.2132223347
 20
4.7785593165
 30
0.0
 40
0.2607934855083673
100
AcDbArc
 50
267.5632834141
 51
272.4367165859
  0
ARC
  5
482
330
1F
100
AcDbEntity
  8
0
  6
Continuous
 62
     7
370
    30
100
AcDbCircle
 10
8.2345187367
 20
4.5577901436
 30
0.0
 40
0.0513017150700827
100
AcDbArc
 50
230.8574989411
 51
259.2509231984
  0
LINE
  5
483
330
1F
100
AcDbEntity
  8
0
  6
Continuous
 62
     7
370
    30
100
AcDbLine
 10
8.2275397693
 20
4.962489935
 30
0.0
 11
8.1955993649
 21
4.962489935
 31
0.0
  0
LINE
  5
484
330
1F
100
AcDbEntity
  8
0
  6
Continuous
 62
     7
370
    30
100
AcDbLine
 10
8.3365994027
 20
4.962489935
 30
0.0
 11
8.2275397693
 21
4.962489935
 31
0.0
  0
LINE
  5
485
330
1F
100
AcDbEntity
  8
0
  6
Continuous
 62
     7
370
    30
100
AcDbLine
 10
8.2141397241
 20
4.9483448317
 30
0.0
 11
8.1710994213
 21
4.9483448317
 31
0.0
  0
LINE
  5
486
330
1F
100
AcDbEntity
  8
0
  6
Continuous
 62
     7
370
    30
100
AcDbLine
 10
8.3350365408
 20
4.9483448317
 30
0.0
 11
8.2141397241
 21
4.9483448317
 31
0.0
  0
LINE
  5
487
330
1F
100
AcDbEntity
  8
0
  6
Continuous
 62
     7
370
    30
100
AcDbLine
 10
8.2275397693
 20
5.0180454532
 30
0.0
 11
8.1955993649
 21
5.0180454532
 31
0.0
  0
LINE
  5
488
330
1F
100
AcDbEntity
  8
0
  6
Continuous
 62
     7
370
    30
100
AcDbLine
 10
8.3365994027
 20
5.0180454532
 30
0.0
 11
8.2275397693
 21
5.0180454532
 31
0.0
  0
LINE
  5
489
330
1F
100
AcDbEntity
  8
0
  6
Continuous
 62
     7
370
    30
100
AcDbLine
 10
8.2141397241
 20
5.0039004233
 30
0.0
 11
8.1710994213
 21
5.0039004233
 31
0.0
  0
LINE
  5
48A
330
1F
100
AcDbEntity
  8
0
  6
Continuous
 62
     7
370
    30
100
AcDbLine
 10
8.3610993464
 20
5.0039004233
 30
0.0
 11
8.2141397241
 21
5.0039004233
 31
0.0
  0
LINE
  5
48B
330
1F
100
AcDbEntity
  8
0
  6
Continuous
 62
     7
370
    30
100
AcDbLine
 10
8.1955993649
 20
4.98975532
 30
0.0
 11
8.3365994027
 21
4.98975532
 31
0.0
  0
LINE
  5
48C
330
1F
100
AcDbEntity
  8
0
  6
Continuous
 62
     7
370
    30
100
AcDbLine
 10
8.2141397241
 20
4.8372337219
 30
0.0
 11
8.1710994213
 21
4.8372337219
 31
0.0
  0
LINE
  5
48D
330
1F
100
AcDbEntity
  8
0
  6
Continuous
 62
     7
370
    30
100
AcDbLine
 10
8.3289165048
 20
4.8372337219
 30
0.0
 11
8.2141397241
 21
4.8372337219
 31
0.0
  0
LINE
  5
48E
330
1F
100
AcDbEntity
  8
0
  6
Continuous
 62
     7
370
    30
100
AcDbLine
 10
8.1955993649
 20
4.8230886187
 30
0.0
 11
8.3365994027
 21
4.8230886187
 31
0.0
  0
LINE
  5
48F
330
1F
100
AcDbEntity
  8
0
  6
Continuous
 62
     7
370
    30
100
AcDbLine
 10
8.1955993649
 20
4.9341997284
 30
0.0
 11
8.3365994027
 21
4.9341997284
 31
0.0
  0
LINE
  5
490
330
1F
100
AcDbEntity
  8
0
  6
Continuous
 62
     7
370
    30
100
AcDbLine
 10
8.2141397241
 20
5.7816781183
 30
0.0
 11
8.1710994213
 21
5.7816781183
 31
0.0
  0
LINE
  5
491
330
1F
100
AcDbEntity
  8
0
  6
Continuous
 62
     7
370
    30
100
AcDbLine
 10
8.3610993464
 20
5.7816781183
 30
0.0
 11
8.2141397241
 21
5.7816781183
 31
0.0
  0
LINE
  5
492
330
1F
100
AcDbEntity
  8
0
  6
Continuous
 62
     7
370
    30
100
AcDbLine
 10
8.1955993649
 20
5.767533015
 30
0.0
 11
8.3365994027
 21
5.767533015
 31
0.0
  0
LINE
  5
493
330
1F
100
AcDbEntity
  8
0
  6
Continuous
 62
     7
370
    30
100
AcDbLine
 10
8.2275397693
 20
4.7402677154
 30
0.0
 11
8.1955993649
 21
4.7402677154
 31
0.0
  0
LINE
  5
494
330
1F
100
AcDbEntity
  8
0
  6
Continuous
 62
     7
370
    30
100
AcDbLine
 10
8.3365994027
 20
4.7402677154
 30
0.0
 11
8.2275397693
 21
4.7402677154
 31
0.0
  0
LINE
  5
495
330
1F
100
AcDbEntity
  8
0
  6
Continuous
 62
     7
370
    30
100
AcDbLine
 10
8.2141397241
 20
4.7261226122
 30
0.0
 11
8.1710994213
 21
4.7261226122
 31
0.0
  0
LINE
  5
496
330
1F
100
AcDbEntity
  8
0
  6
Continuous
 62
     7
370
    30
100
AcDbLine
 10
8.3609070686
 20
4.7261226122
 30
0.0
 11
8.2141397241
 21
4.7261226122
 31
0.0
  0
LINE
  5
497
330
1F
100
AcDbEntity
  8
0
  6
Continuous
 62
     7
370
    30
100
AcDbLine
 10
8.2141397241
 20
5.9483448196
 30
0.0
 11
8.1710994213
 21
5.9483448196
 31
0.0
  0
LINE
  5
498
330
1F
100
AcDbEntity
  8
0
  6
Continuous
 62
     7
370
    30
100
AcDbLine
 10
8.3610993464
 20
5.9483448196
 30
0.0
 11
8.2141397241
 21
5.9483448196
 31
0.0
  0
LINE
  5
499
330
1F
100
AcDbEntity
  8
0
  6
Continuous
 62
     7
370
    30
100
AcDbLine
 10
8.1955993649
 20
5.9341997164
 30
0.0
 11
8.3365994027
 21
5.9341997164
 31
0.0
  0
LINE
  5
49A
330
1F
100
AcDbEntity
  8
0
  6
Continuous
 62
     7
370
    30
100
AcDbLine
 10
8.2141397241
 20
4.7816781304
 30
0.0
 11
8.1817459783
 21
4.7816781304
 31
0.0
  0
LINE
  5
49B
330
1F
100
AcDbEntity
  8
0
  6
Continuous
 62
     7
370
    30
100
AcDbLine
 10
8.3492769763
 20
4.7816781304
 30
0.0
 11
8.2141397241
 21
4.7816781304
 31
0.0
  0
LINE
  5
49C
330
1F
100
AcDbEntity
  8
0
  6
Continuous
 62
     7
370
    30
100
AcDbLine
 10
8.1955993649
 20
4.7675331005
 30
0.0
 11
8.3289165048
 21
4.7675331005
 31
0.0
  0
LINE
  5
49D
330
1F
100
AcDbEntity
  8
0
  6
Continuous
 62
     7
370
    30
100
AcDbLine
 10
8.2275397693
 20
4.7958232337
 30
0.0
 11
8.1955993649
 21
4.7958232337
 31
0.0
  0
LINE
  5
49E
330
1F
100
AcDbEntity
  8
0
  6
Continuous
 62
     7
370
    30
100
AcDbLine
 10
8.3327922734
 20
4.7958232337
 30
0.0
 11
8.2275397693
 21
4.7958232337
 31
0.0
  0
LINE
  5
49F
330
1F
100
AcDbEntity
  8
0
  6
Continuous
 62
     7
370
    30
100
AcDbLine
 10
8.1955993649
 20
4.7119775089
 30
0.0
 11
8.3365994027
 21
4.7119775089
 31
0.0
  0
LINE
  5
4A0
330
1F
100
AcDbEntity
  8
0
  6
Continuous
 62
     7
370
    30
100
AcDbLine
 10
8.2275397693
 20
4.6847121239
 30
0.0
 11
8.1955993649
 21
4.6847121239
 31
0.0
  0
LINE
  5
4A1
330
1F
100
AcDbEntity
  8
0
  6
Continuous
 62
     7
370
    30
100
AcDbLine
 10
8.3365994027
 20
4.6847121239
 30
0.0
 11
8.2275397693
 21
4.6847121239
 31
0.0
  0
LINE
  5
4A2
330
1F
100
AcDbEntity
  8
0
  6
Continuous
 62
     7
370
    30
100
AcDbLine
 10
8.2275397693
 20
4.9069343434
 30
0.0
 11
8.1955993649
 21
4.9069343434
 31
0.0
  0
LINE
  5
4A3
330
1F
100
AcDbEntity
  8
0
  6
Continuous
 62
     7
370
    30
100
AcDbLine
 10
8.3289165048
 20
4.9069343434
 30
0.0
 11
8.2275397693
 21
4.9069343434
 31
0.0
  0
LINE
  5
4A4
330
1F
100
AcDbEntity
  8
0
  6
Continuous
 62
     7
370
    30
100
AcDbLine
 10
8.2141397241
 20
4.8927893135
 30
0.0
 11
8.1772578835
 21
4.8927893135
 31
0.0
  0
LINE
  5
4A5
330
1F
100
AcDbEntity
  8
0
  6
Continuous
 62
     7
370
    30
100
AcDbLine
 10
8.3478685526
 20
4.8927893135
 30
0.0
 11
8.2141397241
 21
4.8927893135
 31
0.0
  0
LINE
  5
4A6
330
1F
100
AcDbEntity
  8
0
  6
Continuous
 62
     7
370
    30
100
AcDbLine
 10
8.2141397241
 20
5.0594559415
 30
0.0
 11
8.1710994213
 21
5.0594559415
 31
0.0
  0
LINE
  5
4A7
330
1F
100
AcDbEntity
  8
0
  6
Continuous
 62
     7
370
    30
100
AcDbLine
 10
8.3610993464
 20
5.0594559415
 30
0.0
 11
8.2141397241
 21
5.0594559415
 31
0.0
  0
LINE
  5
4A8
330
1F
100
AcDbEntity
  8
0
  6
Continuous
 62
     7
370
    30
100
AcDbLine
 10
8.1955993649
 20
5.0453108382
 30
0.0
 11
8.3365994027
 21
5.0453108382
 31
0.0
  0
LINE
  5
4A9
330
1F
100
AcDbEntity
  8
0
  6
Continuous
 62
     7
370
    30
100
AcDbLine
 10
8.2275397693
 20
6.9069343192
 30
0.0
 11
8.1955993649
 21
6.9069343192
 31
0.0
  0
LINE
  5
4AA
330
1F
100
AcDbEntity
  8
0
  6
Continuous
 62
     7
370
    30
100
AcDbLine
 10
8.3365994027
 20
6.9069343192
 30
0.0
 11
8.2275397693
 21
6.9069343192
 31
0.0
  0
LINE
  5
4AB
330
1F
100
AcDbEntity
  8
0
  6
Continuous
 62
     7
370
    30
100
AcDbLine
 10
8.2141397241
 20
6.8927893627
 30
0.0
 11
8.1710994213
 21
6.8927893627
 31
0.0
  0
LINE
  5
4AC
330
1F
100
AcDbEntity
  8
0
  6
Continuous
 62
     7
370
    30
100
AcDbLine
 10
8.3610993464
 20
6.8927893627
 30
0.0
 11
8.2141397241
 21
6.8927893627
 31
0.0
  0
LINE
  5
4AD
330
1F
100
AcDbEntity
  8
0
  6
Continuous
 62
     7
370
    30
100
AcDbLine
 10
8.1955993649
 20
6.8786441127
 30
0.0
 11
8.3365994027
 21
6.8786441127
 31
0.0
  0
LINE
  5
4AE
330
1F
100
AcDbEntity
  8
0
  6
Continuous
 62
     7
370
    30
100
AcDbLine
 10
8.2141397241
 20
5.8372337832
 30
0.0
 11
8.1710994213
 21
5.8372337832
 31
0.0
  0
LINE
  5
4AF
330
1F
100
AcDbEntity
  8
0
  6
Continuous
 62
     7
370
    30
100
AcDbLine
 10
8.3610993464
 20
5.8372337832
 30
0.0
 11
8.2141397241
 21
5.8372337832
 31
0.0
  0
LINE
  5
4B0
330
1F
100
AcDbEntity
  8
0
  6
Continuous
 62
     7
370
    30
100
AcDbLine
 10
8.1955993649
 20
5.8230886799
 30
0.0
 11
8.3365994027
 21
5.8230886799
 31
0.0
  0
LINE
  5
4B1
330
1F
100
AcDbEntity
  8
0
  6
Continuous
 62
     7
370
    30
100
AcDbLine
 10
8.2275397693
 20
5.9624899229
 30
0.0
 11
8.1955993649
 21
5.9624899229
 31
0.0
  0
LINE
  5
4B2
330
1F
100
AcDbEntity
  8
0
  6
Continuous
 62
     7
370
    30
100
AcDbLine
 10
8.3365994027
 20
5.9624899229
 30
0.0
 11
8.2275397693
 21
5.9624899229
 31
0.0
  0
LINE
  5
4B3
330
1F
100
AcDbEntity
  8
0
  6
Continuous
 62
     7
370
    30
100
AcDbLine
 10
8.2141397241
 20
6.0039003378
 30
0.0
 11
8.1710994213
 21
6.0039003378
 31
0.0
  0
LINE
  5
4B4
330
1F
100
AcDbEntity
  8
0
  6
Continuous
 62
     7
370
    30
100
AcDbLine
 10
8.3610993464
 20
6.0039003378
 30
0.0
 11
8.2141397241
 21
6.0039003378
 31
0.0
  0
LINE
  5
4B5
330
1F
100
AcDbEntity
  8
0
  6
Continuous
 62
     7
370
    30
100
AcDbLine
 10
8.1955993649
 20
5.9897552346
 30
0.0
 11
8.3365994027
 21
5.9897552346
 31
0.0
  0
LINE
  5
4B6
330
1F
100
AcDbEntity
  8
0
  6
Continuous
 62
     7
370
    30
100
AcDbLine
 10
8.1955993649
 20
5.1008663564
 30
0.0
 11
8.3365994027
 21
5.1008663564
 31
0.0
  0
LINE
  5
4B7
330
1F
100
AcDbEntity
  8
0
  6
Continuous
 62
     7
370
    30
100
AcDbLine
 10
8.1955993649
 20
4.8786442102
 30
0.0
 11
8.3363290992
 21
4.8786442102
 31
0.0
  0
LINE
  5
4B8
330
1F
100
AcDbEntity
  8
0
  6
Continuous
 62
     7
370
    30
100
AcDbLine
 10
8.2141397241
 20
6.1150115209
 30
0.0
 11
8.1710994213
 21
6.1150115209
 31
0.0
  0
LINE
  5
4B9
330
1F
100
AcDbEntity
  8
0
  6
Continuous
 62
     7
370
    30
100
AcDbLine
 10
8.3610993464
 20
6.1150115209
 30
0.0
 11
8.2141397241
 21
6.1150115209
 31
0.0
  0
LINE
  5
4BA
330
1F
100
AcDbEntity
  8
0
  6
Continuous
 62
     7
370
    30
100
AcDbLine
 10
8.1955993649
 20
6.1008664177
 30
0.0
 11
8.3365994027
 21
6.1008664177
 31
0.0
  0
LINE
  5
4BB
330
1F
100
AcDbEntity
  8
0
  6
Continuous
 62
     7
370
    30
100
AcDbLine
 10
8.2275397693
 20
5.7402677033
 30
0.0
 11
8.1955993649
 21
5.7402677033
 31
0.0
  0
LINE
  5
4BC
330
1F
100
AcDbEntity
  8
0
  6
Continuous
 62
     7
370
    30
100
AcDbLine
 10
8.3365994027
 20
5.7402677033
 30
0.0
 11
8.2275397693
 21
5.7402677033
 31
0.0
  0
LINE
  5
4BD
330
1F
100
AcDbEntity
  8
0
  6
Continuous
 62
     7
370
    30
100
AcDbLine
 10
8.2141397241
 20
5.7261226001
 30
0.0
 11
8.1710994213
 21
5.7261226001
 31
0.0
  0
LINE
  5
4BE
330
1F
100
AcDbEntity
  8
0
  6
Continuous
 62
     7
370
    30
100
AcDbLine
 10
8.3610993464
 20
5.7261226001
 30
0.0
 11
8.2141397241
 21
5.7261226001
 31
0.0
  0
LINE
  5
4BF
330
1F
100
AcDbEntity
  8
0
  6
Continuous
 62
     7
370
    30
100
AcDbLine
 10
8.2275397693
 20
5.7958232216
 30
0.0
 11
8.1955993649
 21
5.7958232216
 31
0.0
  0
LINE
  5
4C0
330
1F
100
AcDbEntity
  8
0
  6
Continuous
 62
     7
370
    30
100
AcDbLine
 10
8.3365994027
 20
5.7958232216
 30
0.0
 11
8.2275397693
 21
5.7958232216
 31
0.0
  0
LINE
  5
4C1
330
1F
100
AcDbEntity
  8
0
  6
Continuous
 62
     7
370
    30
100
AcDbLine
 10
8.2275397693
 20
5.8513787398
 30
0.0
 11
8.1955993649
 21
5.8513787398
 31
0.0
  0
LINE
  5
4C2
330
1F
100
AcDbEntity
  8
0
  6
Continuous
 62
     7
370
    30
100
AcDbLine
 10
8.3365994027
 20
5.8513787398
 30
0.0
 11
8.2275397693
 21
5.8513787398
 31
0.0
  0
LINE
  5
4C3
330
1F
100
AcDbEntity
  8
0
  6
Continuous
 62
     7
370
    30
100
AcDbLine
 10
8.2275397693
 20
4.8513788252
 30
0.0
 11
8.1955993649
 21
4.8513788252
 31
0.0
  0
LINE
  5
4C4
330
1F
100
AcDbEntity
  8
0
  6
Continuous
 62
     7
370
    30
100
AcDbLine
 10
8.3365994027
 20
4.8513788252
 30
0.0
 11
8.2275397693
 21
4.8513788252
 31
0.0
  0
LINE
  5
4C5
330
1F
100
AcDbEntity
  8
0
  6
Continuous
 62
     7
370
    30
100
AcDbLine
 10
8.2275397693
 20
6.0736009593
 30
0.0
 11
8.1955993649
 21
6.0736009593
 31
0.0
  0
LINE
  5
4C6
330
1F
100
AcDbEntity
  8
0
  6
Continuous
 62
     7
370
    30
100
AcDbLine
 10
8.3365994027
 20
6.0736009593
 30
0.0
 11
8.2275397693
 21
6.0736009593
 31
0.0
  0
LINE
  5
4C7
330
1F
100
AcDbEntity
  8
0
  6
Continuous
 62
     7
370
    30
100
AcDbLine
 10
8.2141397241
 20
6.0594560027
 30
0.0
 11
8.1710994213
 21
6.0594560027
 31
0.0
  0
LINE
  5
4C8
330
1F
100
AcDbEntity
  8
0
  6
Continuous
 62
     7
370
    30
100
AcDbLine
 10
8.3610993464
 20
6.0594560027
 30
0.0
 11
8.2141397241
 21
6.0594560027
 31
0.0
  0
LINE
  5
4C9
330
1F
100
AcDbEntity
  8
0
  6
Continuous
 62
     7
370
    30
100
AcDbLine
 10
8.2275397693
 20
6.1291566242
 30
0.0
 11
8.1955993649
 21
6.1291566242
 31
0.0
  0
LINE
  5
4CA
330
1F
100
AcDbEntity
  8
0
  6
Continuous
 62
     7
370
    30
100
AcDbLine
 10
8.3365994027
 20
6.1291566242
 30
0.0
 11
8.2275397693
 21
6.1291566242
 31
0.0
  0
LINE
  5
4CB
330
1F
100
AcDbEntity
  8
0
  6
Continuous
 62
     7
370
    30
100
AcDbLine
 10
8.2141397241
 20
6.1705670392
 30
0.0
 11
8.1710994213
 21
6.1705670392
 31
0.0
  0
LINE
  5
4CC
330
1F
100
AcDbEntity
  8
0
  6
Continuous
 62
     7
370
    30
100
AcDbLine
 10
8.3610993464
 20
6.1705670392
 30
0.0
 11
8.2141397241
 21
6.1705670392
 31
0.0
  0
LINE
  5
4CD
330
1F
100
AcDbEntity
  8
0
  6
Continuous
 62
     7
370
    30
100
AcDbLine
 10
8.1955993649
 20
6.1564219359
 30
0.0
 11
8.3365994027
 21
6.1564219359
 31
0.0
  0
LINE
  5
4CE
330
1F
100
AcDbEntity
  8
0
  6
Continuous
 62
     7
370
    30
100
AcDbLine
 10
8.2275397693
 20
6.7402677646
 30
0.0
 11
8.1955993649
 21
6.7402677646
 31
0.0
  0
LINE
  5
4CF
330
1F
100
AcDbEntity
  8
0
  6
Continuous
 62
     7
370
    30
100
AcDbLine
 10
8.3365994027
 20
6.7402677646
 30
0.0
 11
8.2275397693
 21
6.7402677646
 31
0.0
  0
LINE
  5
4D0
330
1F
100
AcDbEntity
  8
0
  6
Continuous
 62
     7
370
    30
100
AcDbLine
 10
8.2141397241
 20
6.7261225147
 30
0.0
 11
8.1710994213
 21
6.7261225147
 31
0.0
  0
LINE
  5
4D1
330
1F
100
AcDbEntity
  8
0
  6
Continuous
 62
     7
370
    30
100
AcDbLine
 10
8.3610993464
 20
6.7261225147
 30
0.0
 11
8.2141397241
 21
6.7261225147
 31
0.0
  0
LINE
  5
4D2
330
1F
100
AcDbEntity
  8
0
  6
Continuous
 62
     7
370
    30
100
AcDbLine
 10
8.2275397693
 20
6.1847121424
 30
0.0
 11
8.1955993649
 21
6.1847121424
 31
0.0
  0
LINE
  5
4D3
330
1F
100
AcDbEntity
  8
0
  6
Continuous
 62
     7
370
    30
100
AcDbLine
 10
8.3365994027
 20
6.1847121424
 30
0.0
 11
8.2275397693
 21
6.1847121424
 31
0.0
  0
LINE
  5
4D4
330
1F
100
AcDbEntity
  8
0
  6
Continuous
 62
     7
370
    30
100
AcDbLine
 10
8.2275397693
 20
5.0736010447
 30
0.0
 11
8.1955993649
 21
5.0736010447
 31
0.0
  0
LINE
  5
4D5
330
1F
100
AcDbEntity
  8
0
  6
Continuous
 62
     7
370
    30
100
AcDbLine
 10
8.3365994027
 20
5.0736010447
 30
0.0
 11
8.2275397693
 21
5.0736010447
 31
0.0
  0
LINE
  5
4D6
330
1F
100
AcDbEntity
  8
0
  6
Continuous
 62
     7
370
    30
100
AcDbLine
 10
8.2141397241
 20
6.2816780756
 30
0.0
 11
8.1710994213
 21
6.2816780756
 31
0.0
  0
LINE
  5
4D7
330
1F
100
AcDbEntity
  8
0
  6
Continuous
 62
     7
370
    30
100
AcDbLine
 10
8.3610993464
 20
6.2816780756
 30
0.0
 11
8.2141397241
 21
6.2816780756
 31
0.0
  0
LINE
  5
4D8
330
1F
100
AcDbEntity
  8
0
  6
Continuous
 62
     7
370
    30
100
AcDbLine
 10
8.1955993649
 20
6.267533119
 30
0.0
 11
8.3365994027
 21
6.267533119
 31
0.0
  0
LINE
  5
4D9
330
1F
100
AcDbEntity
  8
0
  6
Continuous
 62
     7
370
    30
100
AcDbLine
 10
8.2275397693
 20
6.851378801
 30
0.0
 11
8.1955993649
 21
6.851378801
 31
0.0
  0
LINE
  5
4DA
330
1F
100
AcDbEntity
  8
0
  6
Continuous
 62
     7
370
    30
100
AcDbLine
 10
8.3365994027
 20
6.851378801
 30
0.0
 11
8.2275397693
 21
6.851378801
 31
0.0
  0
LINE
  5
4DB
330
1F
100
AcDbEntity
  8
0
  6
Continuous
 62
     7
370
    30
100
AcDbLine
 10
8.2141397241
 20
6.8372338444
 30
0.0
 11
8.1710994213
 21
6.8372338444
 31
0.0
  0
LINE
  5
4DC
330
1F
100
AcDbEntity
  8
0
  6
Continuous
 62
     7
370
    30
100
AcDbLine
 10
8.3610993464
 20
6.8372338444
 30
0.0
 11
8.2141397241
 21
6.8372338444
 31
0.0
  0
LINE
  5
4DD
330
1F
100
AcDbEntity
  8
0
  6
Continuous
 62
     7
370
    30
100
AcDbLine
 10
8.1955993649
 20
5.7119774968
 30
0.0
 11
8.3365994027
 21
5.7119774968
 31
0.0
  0
LINE
  5
4DE
330
1F
100
AcDbEntity
  8
0
  6
Continuous
 62
     7
370
    30
100
AcDbLine
 10
8.2141397241
 20
6.3372335938
 30
0.0
 11
8.1710994213
 21
6.3372335938
 31
0.0
  0
LINE
  5
4DF
330
1F
100
AcDbEntity
  8
0
  6
Continuous
 62
     7
370
    30
100
AcDbLine
 10
8.3610993464
 20
6.3372335938
 30
0.0
 11
8.2141397241
 21
6.3372335938
 31
0.0
  0
LINE
  5
4E0
330
1F
100
AcDbEntity
  8
0
  6
Continuous
 62
     7
370
    30
100
AcDbLine
 10
8.1955993649
 20
6.3230886372
 30
0.0
 11
8.3365994027
 21
6.3230886372
 31
0.0
  0
LINE
  5
4E1
330
1F
100
AcDbEntity
  8
0
  6
Continuous
 62
     7
370
    30
100
AcDbLine
 10
8.2141397241
 20
5.8927893014
 30
0.0
 11
8.1710994213
 21
5.8927893014
 31
0.0
  0
LINE
  5
4E2
330
1F
100
AcDbEntity
  8
0
  6
Continuous
 62
     7
370
    30
100
AcDbLine
 10
8.3610993464
 20
5.8927893014
 30
0.0
 11
8.2141397241
 21
5.8927893014
 31
0.0
  0
LINE
  5
4E3
330
1F
100
AcDbEntity
  8
0
  6
Continuous
 62
     7
370
    30
100
AcDbLine
 10
8.1955993649
 20
5.8786441981
 30
0.0
 11
8.3365994027
 21
5.8786441981
 31
0.0
  0
LINE
  5
4E4
330
1F
100
AcDbEntity
  8
0
  6
Continuous
 62
     7
370
    30
100
AcDbLine
 10
8.2275397693
 20
5.9069344047
 30
0.0
 11
8.1955993649
 21
5.9069344047
 31
0.0
  0
LINE
  5
4E5
330
1F
100
AcDbEntity
  8
0
  6
Continuous
 62
     7
370
    30
100
AcDbLine
 10
8.3365994027
 20
5.9069344047
 30
0.0
 11
8.2275397693
 21
5.9069344047
 31
0.0
  0
LINE
  5
4E6
330
1F
100
AcDbEntity
  8
0
  6
Continuous
 62
     7
370
    30
100
AcDbLine
 10
8.2275397693
 20
6.0180454411
 30
0.0
 11
8.1955993649
 21
6.0180454411
 31
0.0
  0
LINE
  5
4E7
330
1F
100
AcDbEntity
  8
0
  6
Continuous
 62
     7
370
    30
100
AcDbLine
 10
8.3365994027
 20
6.0180454411
 30
0.0
 11
8.2275397693
 21
6.0180454411
 31
0.0
  0
LINE
  5
4E8
330
1F
100
AcDbEntity
  8
0
  6
Continuous
 62
     7
370
    30
100
AcDbLine
 10
8.1955993649
 20
6.0453108995
 30
0.0
 11
8.3365994027
 21
6.0453108995
 31
0.0
  0
LINE
  5
4E9
330
1F
100
AcDbEntity
  8
0
  6
Continuous
 62
     7
370
    30
100
AcDbLine
 10
8.2275397693
 20
6.6847122464
 30
0.0
 11
8.1955993649
 21
6.6847122464
 31
0.0
  0
LINE
  5
4EA
330
1F
100
AcDbEntity
  8
0
  6
Continuous
 62
     7
370
    30
100
AcDbLine
 10
8.3365994027
 20
6.6847122464
 30
0.0
 11
8.2275397693
 21
6.6847122464
 31
0.0
  0
LINE
  5
4EB
330
1F
100
AcDbEntity
  8
0
  6
Continuous
 62
     7
370
    30
100
AcDbLine
 10
8.2141397241
 20
6.6705669965
 30
0.0
 11
8.1710994213
 21
6.6705669965
 31
0.0
  0
LINE
  5
4EC
330
1F
100
AcDbEntity
  8
0
  6
Continuous
 62
     7
370
    30
100
AcDbLine
 10
8.3610993464
 20
6.6705669965
 30
0.0
 11
8.2141397241
 21
6.6705669965
 31
0.0
  0
LINE
  5
4ED
330
1F
100
AcDbEntity
  8
0
  6
Continuous
 62
     7
370
    30
100
AcDbLine
 10
8.1955993649
 20
6.8230885945
 30
0.0
 11
8.3365994027
 21
6.8230885945
 31
0.0
  0
LINE
  5
4EE
330
1F
100
AcDbEntity
  8
0
  6
Continuous
 62
     7
370
    30
100
AcDbLine
 10
8.2141397241
 20
6.7816780329
 30
0.0
 11
8.1710994213
 21
6.7816780329
 31
0.0
  0
LINE
  5
4EF
330
1F
100
AcDbEntity
  8
0
  6
Continuous
 62
     7
370
    30
100
AcDbLine
 10
8.3610993464
 20
6.7816780329
 30
0.0
 11
8.2141397241
 21
6.7816780329
 31
0.0
  0
LINE
  5
4F0
330
1F
100
AcDbEntity
  8
0
  6
Continuous
 62
     7
370
    30
100
AcDbLine
 10
8.1955993649
 20
6.7675330763
 30
0.0
 11
8.3365994027
 21
6.7675330763
 31
0.0
  0
LINE
  5
4F1
330
1F
100
AcDbEntity
  8
0
  6
Continuous
 62
     7
370
    30
100
AcDbLine
 10
8.2141397241
 20
6.3927894054
 30
0.0
 11
8.1710994213
 21
6.3927894054
 31
0.0
  0
LINE
  5
4F2
330
1F
100
AcDbEntity
  8
0
  6
Continuous
 62
     7
370
    30
100
AcDbLine
 10
8.3610993464
 20
6.3927894054
 30
0.0
 11
8.2141397241
 21
6.3927894054
 31
0.0
  0
LINE
  5
4F3
330
1F
100
AcDbEntity
  8
0
  6
Continuous
 62
     7
370
    30
100
AcDbLine
 10
8.1955993649
 20
6.3786441554
 30
0.0
 11
8.3365994027
 21
6.3786441554
 31
0.0
  0
LINE
  5
4F4
330
1F
100
AcDbEntity
  8
0
  6
Continuous
 62
     7
370
    30
100
AcDbLine
 10
8.2275397693
 20
6.406934362
 30
0.0
 11
8.1955993649
 21
6.406934362
 31
0.0
  0
LINE
  5
4F5
330
1F
100
AcDbEntity
  8
0
  6
Continuous
 62
     7
370
    30
100
AcDbLine
 10
8.3365994027
 20
6.406934362
 30
0.0
 11
8.2275397693
 21
6.406934362
 31
0.0
  0
LINE
  5
4F6
330
1F
100
AcDbEntity
  8
0
  6
Continuous
 62
     7
370
    30
100
AcDbLine
 10
8.2275397693
 20
6.3513788437
 30
0.0
 11
8.1955993649
 21
6.3513788437
 31
0.0
  0
LINE
  5
4F7
330
1F
100
AcDbEntity
  8
0
  6
Continuous
 62
     7
370
    30
100
AcDbLine
 10
8.3365994027
 20
6.3513788437
 30
0.0
 11
8.2275397693
 21
6.3513788437
 31
0.0
  0
LINE
  5
4F8
330
1F
100
AcDbEntity
  8
0
  6
Continuous
 62
     7
370
    30
100
AcDbLine
 10
8.2275397693
 20
6.7958232828
 30
0.0
 11
8.1955993649
 21
6.7958232828
 31
0.0
  0
LINE
  5
4F9
330
1F
100
AcDbEntity
  8
0
  6
Continuous
 62
     7
370
    30
100
AcDbLine
 10
8.3365994027
 20
6.7958232828
 30
0.0
 11
8.2275397693
 21
6.7958232828
 31
0.0
  0
LINE
  5
4FA
330
1F
100
AcDbEntity
  8
0
  6
Continuous
 62
     7
370
    30
100
AcDbLine
 10
8.2141397241
 20
6.55945596
 30
0.0
 11
8.1710994213
 21
6.55945596
 31
0.0
  0
LINE
  5
4FB
330
1F
100
AcDbEntity
  8
0
  6
Continuous
 62
     7
370
    30
100
AcDbLine
 10
8.3610993464
 20
6.55945596
 30
0.0
 11
8.2141397241
 21
6.55945596
 31
0.0
  0
LINE
  5
4FC
330
1F
100
AcDbEntity
  8
0
  6
Continuous
 62
     7
370
    30
100
AcDbLine
 10
8.1955993649
 20
6.6564220399
 30
0.0
 11
8.3365994027
 21
6.6564220399
 31
0.0
  0
LINE
  5
4FD
330
1F
100
AcDbEntity
  8
0
  6
Continuous
 62
     7
370
    30
100
AcDbLine
 10
8.2275397693
 20
6.4624898802
 30
0.0
 11
8.1955993649
 21
6.4624898802
 31
0.0
  0
LINE
  5
4FE
330
1F
100
AcDbEntity
  8
0
  6
Continuous
 62
     7
370
    30
100
AcDbLine
 10
8.3365994027
 20
6.4624898802
 30
0.0
 11
8.2275397693
 21
6.4624898802
 31
0.0
  0
LINE
  5
4FF
330
1F
100
AcDbEntity
  8
0
  6
Continuous
 62
     7
370
    30
100
AcDbLine
 10
8.2141397241
 20
6.4483449236
 30
0.0
 11
8.1710994213
 21
6.4483449236
 31
0.0
  0
LINE
  5
500
330
1F
100
AcDbEntity
  8
0
  6
Continuous
 62
     7
370
    30
100
AcDbLine
 10
8.3610993464
 20
6.4483449236
 30
0.0
 11
8.2141397241
 21
6.4483449236
 31
0.0
  0
LINE
  5
501
330
1F
100
AcDbEntity
  8
0
  6
Continuous
 62
     7
370
    30
100
AcDbLine
 10
8.2275397693
 20
6.6291564348
 30
0.0
 11
8.1955993649
 21
6.6291564348
 31
0.0
  0
LINE
  5
502
330
1F
100
AcDbEntity
  8
0
  6
Continuous
 62
     7
370
    30
100
AcDbLine
 10
8.3365994027
 20
6.6291564348
 30
0.0
 11
8.2275397693
 21
6.6291564348
 31
0.0
  0
LINE
  5
503
330
1F
100
AcDbEntity
  8
0
  6
Continuous
 62
     7
370
    30
100
AcDbLine
 10
8.2141397241
 20
6.6150114782
 30
0.0
 11
8.1710994213
 21
6.6150114782
 31
0.0
  0
LINE
  5
504
330
1F
100
AcDbEntity
  8
0
  6
Continuous
 62
     7
370
    30
100
AcDbLine
 10
8.3610993464
 20
6.6150114782
 30
0.0
 11
8.2141397241
 21
6.6150114782
 31
0.0
  0
LINE
  5
505
330
1F
100
AcDbEntity
  8
0
  6
Continuous
 62
     7
370
    30
100
AcDbLine
 10
8.2275397693
 20
6.2958233255
 30
0.0
 11
8.1955993649
 21
6.2958233255
 31
0.0
  0
LINE
  5
506
330
1F
100
AcDbEntity
  8
0
  6
Continuous
 62
     7
370
    30
100
AcDbLine
 10
8.3365994027
 20
6.2958233255
 30
0.0
 11
8.2275397693
 21
6.2958233255
 31
0.0
  0
LINE
  5
507
330
1F
100
AcDbEntity
  8
0
  6
Continuous
 62
     7
370
    30
100
AcDbLine
 10
8.2141397241
 20
6.2261225574
 30
0.0
 11
8.1710994213
 21
6.2261225574
 31
0.0
  0
LINE
  5
508
330
1F
100
AcDbEntity
  8
0
  6
Continuous
 62
     7
370
    30
100
AcDbLine
 10
8.3610993464
 20
6.2261225574
 30
0.0
 11
8.2141397241
 21
6.2261225574
 31
0.0
  0
LINE
  5
509
330
1F
100
AcDbEntity
  8
0
  6
Continuous
 62
     7
370
    30
100
AcDbLine
 10
8.1955993649
 20
6.2119776008
 30
0.0
 11
8.3365994027
 21
6.2119776008
 31
0.0
  0
LINE
  5
50A
330
1F
100
AcDbEntity
  8
0
  6
Continuous
 62
     7
370
    30
100
AcDbLine
 10
8.1955993649
 20
6.4341996737
 30
0.0
 11
8.3365994027
 21
6.4341996737
 31
0.0
  0
LINE
  5
50B
330
1F
100
AcDbEntity
  8
0
  6
Continuous
 62
     7
370
    30
100
AcDbLine
 10
8.1955993649
 20
6.6008665216
 30
0.0
 11
8.3365994027
 21
6.6008665216
 31
0.0
  0
LINE
  5
50C
330
1F
100
AcDbEntity
  8
0
  6
Continuous
 62
     7
370
    30
100
AcDbLine
 10
8.2275397693
 20
6.2402676606
 30
0.0
 11
8.1955993649
 21
6.2402676606
 31
0.0
  0
LINE
  5
50D
330
1F
100
AcDbEntity
  8
0
  6
Continuous
 62
     7
370
    30
100
AcDbLine
 10
8.3365994027
 20
6.2402676606
 30
0.0
 11
8.2275397693
 21
6.2402676606
 31
0.0
  0
LINE
  5
50E
330
1F
100
AcDbEntity
  8
0
  6
Continuous
 62
     7
370
    30
100
AcDbLine
 10
8.2275397693
 20
6.5736009166
 30
0.0
 11
8.1955993649
 21
6.5736009166
 31
0.0
  0
LINE
  5
50F
330
1F
100
AcDbEntity
  8
0
  6
Continuous
 62
     7
370
    30
100
AcDbLine
 10
8.3365994027
 20
6.5736009166
 30
0.0
 11
8.2275397693
 21
6.5736009166
 31
0.0
  0
LINE
  5
510
330
1F
100
AcDbEntity
  8
0
  6
Continuous
 62
     7
370
    30
100
AcDbLine
 10
8.1955993649
 20
6.7119775581
 30
0.0
 11
8.3365994027
 21
6.7119775581
 31
0.0
  0
LINE
  5
511
330
1F
100
AcDbEntity
  8
0
  6
Continuous
 62
     7
370
    30
100
AcDbLine
 10
8.2275397693
 20
6.944809375
 30
0.0
 11
8.1955993649
 21
6.944809375
 31
0.0
  0
LINE
  5
512
330
1F
100
AcDbEntity
  8
0
  6
Continuous
 62
     7
370
    30
100
AcDbLine
 10
8.3365994027
 20
6.944809375
 30
0.0
 11
8.2275397693
 21
6.944809375
 31
0.0
  0
LINE
  5
513
330
1F
100
AcDbEntity
  8
0
  6
Continuous
 62
     7
370
    30
100
AcDbLine
 10
8.2263613162
 20
4.5173168643
 30
0.0
 11
8.2249505459
 21
4.507388599
 31
0.0
  0
LINE
  5
514
330
1F
100
AcDbEntity
  8
0
  6
Continuous
 62
     7
370
    30
100
AcDbLine
 10
8.3067378277
 20
4.5109801308
 30
0.0
 11
8.3072482218
 21
4.507388599
 31
0.0
  0
LINE
  5
515
330
1F
100
AcDbEntity
  8
0
  6
Continuous
 62
     7
370
    30
100
AcDbLine
 10
8.2575358361
 20
4.5095592406
 30
0.0
 11
8.2574711568
 21
4.507388599
 31
0.0
  0
LINE
  5
516
330
1F
100
AcDbEntity
  8
0
  6
Continuous
 62
     7
370
    30
100
AcDbLine
 10
3.5795993427
 20
4.6150115024
 30
0.0
 11
3.5828158522
 21
4.6150115024
 31
0.0
  0
LINE
  5
517
330
1F
100
AcDbEntity
  8
0
  6
Continuous
 62
     7
370
    30
100
AcDbLine
 10
3.9278158667
 20
4.6150115024
 30
0.0
 11
3.9472331357
 21
4.6150115024
 31
0.0
  0
ARC
  5
518
330
1F
100
AcDbEntity
  8
0
  6
Continuous
 62
     7
370
    30
100
AcDbCircle
 10
3.7788261191
 20
4.8421636614
 30
0.0
 40
0.3354554802011683
100
AcDbArc
 50
260.8463308022
 51
266.3500959123
  0
LWPOLYLINE
  5
519
330
1F
100
AcDbEntity
  8
0
  6
Continuous
 62
     7
370
    30
100
AcDbPolyline
 90
        3
 70
   128
 43
0.0
 10
3.7574711012
 20
4.507388599
 10
3.7637800417
 20
4.5080114118
 10
3.7660994016
 20
4.5082910286
  0
ARC
  5
51A
330
1F
100
AcDbEntity
  8
0
  6
Continuous
 62
     7
370
    30
100
AcDbCircle
 10
3.7917796269
 20
4.6854463176
 30
0.0
 40
0.1787283605528495
100
AcDbArc
 50
274.9650330239
 51
290.4681302315
  0
ARC
  5
51B
330
1F
100
AcDbEntity
  8
0
  6
Continuous
 62
     7
370
    30
100
AcDbCircle
 10
3.8470344866
 20
4.6291601612
 30
0.0
 40
0.1113943074459737
100
AcDbArc
 50
266.2714082734
 51
273.7285917266
  0
ARC
  5
51C
330
1F
100
AcDbEntity
  8
0
  6
Continuous
 62
     7
370
    30
100
AcDbCircle
 10
3.7530492091
 20
4.8450266355
 30
0.0
 40
0.3383332593769053
100
AcDbArc
 50
273.6736831667
 51
284.8552657626
  0
ARC
  5
51D
330
1F
100
AcDbEntity
  8
0
  6
Continuous
 62
     7
370
    30
100
AcDbCircle
 10
3.7926754749
 20
4.7177102713
 30
0.0
 40
0.2110860811266266
100
AcDbArc
 50
251.1026627402
 51
265.122448807
  0
ARC
  5
51E
330
1F
100
AcDbEntity
  8
0
  6
Continuous
 62
     7
370
    30
100
AcDbCircle
 10
3.7132223524
 20
4.7785619965
 30
0.0
 40
0.2607961662358639
100
AcDbArc
 50
267.5632923509
 51
272.4367076491
  0
ARC
  5
51F
330
1F
100
AcDbEntity
  8
0
  6
Continuous
 62
     7
370
    30
100
AcDbCircle
 10
3.7345191656
 20
4.5577911852
 30
0.0
 40
0.0513028288221748
100
AcDbArc
 50
230.8578136087
 51
259.2506085308
  0
LINE
  5
520
330
1F
100
AcDbEntity
  8
0
  6
Continuous
 62
     7
370
    30
100
AcDbLine
 10
3.7275398603
 20
5.9624899229
 30
0.0
 11
3.6955993093
 21
5.9624899229
 31
0.0
  0
LINE
  5
521
330
1F
100
AcDbEntity
  8
0
  6
Continuous
 62
     7
370
    30
100
AcDbLine
 10
3.8365993471
 20
5.9624899229
 30
0.0
 11
3.7275398603
 21
5.9624899229
 31
0.0
  0
LINE
  5
522
330
1F
100
AcDbEntity
  8
0
  6
Continuous
 62
     7
370
    30
100
AcDbLine
 10
3.7141396685
 20
5.9483448196
 30
0.0
 11
3.6710993657
 21
5.9483448196
 31
0.0
  0
LINE
  5
523
330
1F
100
AcDbEntity
  8
0
  6
Continuous
 62
     7
370
    30
100
AcDbLine
 10
3.8610992908
 20
5.9483448196
 30
0.0
 11
3.7141396685
 21
5.9483448196
 31
0.0
  0
LINE
  5
524
330
1F
100
AcDbEntity
  8
0
  6
Continuous
 62
     7
370
    30
100
AcDbLine
 10
3.7275398603
 20
6.851378801
 30
0.0
 11
3.6955993093
 21
6.851378801
 31
0.0
  0
LINE
  5
525
330
1F
100
AcDbEntity
  8
0
  6
Continuous
 62
     7
370
    30
100
AcDbLine
 10
3.8365993471
 20
6.851378801
 30
0.0
 11
3.7275398603
 21
6.851378801
 31
0.0
  0
LINE
  5
526
330
1F
100
AcDbEntity
  8
0
  6
Continuous
 62
     7
370
    30
100
AcDbLine
 10
3.7141396685
 20
6.8372338444
 30
0.0
 11
3.6710993657
 21
6.8372338444
 31
0.0
  0
LINE
  5
527
330
1F
100
AcDbEntity
  8
0
  6
Continuous
 62
     7
370
    30
100
AcDbLine
 10
3.8610992908
 20
6.8372338444
 30
0.0
 11
3.7141396685
 21
6.8372338444
 31
0.0
  0
LINE
  5
528
330
1F
100
AcDbEntity
  8
0
  6
Continuous
 62
     7
370
    30
100
AcDbLine
 10
3.7141396685
 20
4.7816781304
 30
0.0
 11
3.6817460693
 21
4.7816781304
 31
0.0
  0
LINE
  5
529
330
1F
100
AcDbEntity
  8
0
  6
Continuous
 62
     7
370
    30
100
AcDbLine
 10
3.8492769207
 20
4.7816781304
 30
0.0
 11
3.7141396685
 21
4.7816781304
 31
0.0
  0
LINE
  5
52A
330
1F
100
AcDbEntity
  8
0
  6
Continuous
 62
     7
370
    30
100
AcDbLine
 10
3.6955993093
 20
4.7675331005
 30
0.0
 11
3.8289165959
 21
4.7675331005
 31
0.0
  0
LINE
  5
52B
330
1F
100
AcDbEntity
  8
0
  6
Continuous
 62
     7
370
    30
100
AcDbLine
 10
3.7275398603
 20
4.6847121239
 30
0.0
 11
3.6955993093
 21
4.6847121239
 31
0.0
  0
LINE
  5
52C
330
1F
100
AcDbEntity
  8
0
  6
Continuous
 62
     7
370
    30
100
AcDbLine
 10
3.8365993471
 20
4.6847121239
 30
0.0
 11
3.7275398603
 21
4.6847121239
 31
0.0
  0
LINE
  5
52D
330
1F
100
AcDbEntity
  8
0
  6
Continuous
 62
     7
370
    30
100
AcDbLine
 10
3.7275398603
 20
4.7402677154
 30
0.0
 11
3.6955993093
 21
4.7402677154
 31
0.0
  0
LINE
  5
52E
330
1F
100
AcDbEntity
  8
0
  6
Continuous
 62
     7
370
    30
100
AcDbLine
 10
3.8365993471
 20
4.7402677154
 30
0.0
 11
3.7275398603
 21
4.7402677154
 31
0.0
  0
LINE
  5
52F
330
1F
100
AcDbEntity
  8
0
  6
Continuous
 62
     7
370
    30
100
AcDbLine
 10
3.7141396685
 20
4.7261226122
 30
0.0
 11
3.6710993657
 21
4.7261226122
 31
0.0
  0
LINE
  5
530
330
1F
100
AcDbEntity
  8
0
  6
Continuous
 62
     7
370
    30
100
AcDbLine
 10
3.860907013
 20
4.7261226122
 30
0.0
 11
3.7141396685
 21
4.7261226122
 31
0.0
  0
LINE
  5
531
330
1F
100
AcDbEntity
  8
0
  6
Continuous
 62
     7
370
    30
100
AcDbLine
 10
3.7141396685
 20
6.8927893627
 30
0.0
 11
3.6710993657
 21
6.8927893627
 31
0.0
  0
LINE
  5
532
330
1F
100
AcDbEntity
  8
0
  6
Continuous
 62
     7
370
    30
100
AcDbLine
 10
3.8610992908
 20
6.8927893627
 30
0.0
 11
3.7141396685
 21
6.8927893627
 31
0.0
  0
LINE
  5
533
330
1F
100
AcDbEntity
  8
0
  6
Continuous
 62
     7
370
    30
100
AcDbLine
 10
3.6955993093
 20
6.8786441127
 30
0.0
 11
3.8365993471
 21
6.8786441127
 31
0.0
  0
LINE
  5
534
330
1F
100
AcDbEntity
  8
0
  6
Continuous
 62
     7
370
    30
100
AcDbLine
 10
3.7275398603
 20
6.0180454411
 30
0.0
 11
3.6955993093
 21
6.0180454411
 31
0.0
  0
LINE
  5
535
330
1F
100
AcDbEntity
  8
0
  6
Continuous
 62
     7
370
    30
100
AcDbLine
 10
3.8365993471
 20
6.0180454411
 30
0.0
 11
3.7275398603
 21
6.0180454411
 31
0.0
  0
LINE
  5
536
330
1F
100
AcDbEntity
  8
0
  6
Continuous
 62
     7
370
    30
100
AcDbLine
 10
3.7141396685
 20
6.0039003378
 30
0.0
 11
3.6710993657
 21
6.0039003378
 31
0.0
  0
LINE
  5
537
330
1F
100
AcDbEntity
  8
0
  6
Continuous
 62
     7
370
    30
100
AcDbLine
 10
3.8610992908
 20
6.0039003378
 30
0.0
 11
3.7141396685
 21
6.0039003378
 31
0.0
  0
LINE
  5
538
330
1F
100
AcDbEntity
  8
0
  6
Continuous
 62
     7
370
    30
100
AcDbLine
 10
3.7141396685
 20
6.0594560027
 30
0.0
 11
3.6710993657
 21
6.0594560027
 31
0.0
  0
LINE
  5
539
330
1F
100
AcDbEntity
  8
0
  6
Continuous
 62
     7
370
    30
100
AcDbLine
 10
3.8610992908
 20
6.0594560027
 30
0.0
 11
3.7141396685
 21
6.0594560027
 31
0.0
  0
LINE
  5
53A
330
1F
100
AcDbEntity
  8
0
  6
Continuous
 62
     7
370
    30
100
AcDbLine
 10
3.6955993093
 20
6.0453108995
 30
0.0
 11
3.8365993471
 21
6.0453108995
 31
0.0
  0
LINE
  5
53B
330
1F
100
AcDbEntity
  8
0
  6
Continuous
 62
     7
370
    30
100
AcDbLine
 10
3.7141396685
 20
4.8372337219
 30
0.0
 11
3.6710993657
 21
4.8372337219
 31
0.0
  0
LINE
  5
53C
330
1F
100
AcDbEntity
  8
0
  6
Continuous
 62
     7
370
    30
100
AcDbLine
 10
3.8289165959
 20
4.8372337219
 30
0.0
 11
3.7141396685
 21
4.8372337219
 31
0.0
  0
LINE
  5
53D
330
1F
100
AcDbEntity
  8
0
  6
Continuous
 62
     7
370
    30
100
AcDbLine
 10
3.6955993093
 20
4.8230886187
 30
0.0
 11
3.8365993471
 21
4.8230886187
 31
0.0
  0
LINE
  5
53E
330
1F
100
AcDbEntity
  8
0
  6
Continuous
 62
     7
370
    30
100
AcDbLine
 10
3.7141396685
 20
5.7261226001
 30
0.0
 11
3.6710993657
 21
5.7261226001
 31
0.0
  0
LINE
  5
53F
330
1F
100
AcDbEntity
  8
0
  6
Continuous
 62
     7
370
    30
100
AcDbLine
 10
3.8610992908
 20
5.7261226001
 30
0.0
 11
3.7141396685
 21
5.7261226001
 31
0.0
  0
LINE
  5
540
330
1F
100
AcDbEntity
  8
0
  6
Continuous
 62
     7
370
    30
100
AcDbLine
 10
3.6955993093
 20
5.7119774968
 30
0.0
 11
3.8365993471
 21
5.7119774968
 31
0.0
  0
LINE
  5
541
330
1F
100
AcDbEntity
  8
0
  6
Continuous
 62
     7
370
    30
100
AcDbLine
 10
3.7141396685
 20
4.9483448317
 30
0.0
 11
3.6710993657
 21
4.9483448317
 31
0.0
  0
LINE
  5
542
330
1F
100
AcDbEntity
  8
0
  6
Continuous
 62
     7
370
    30
100
AcDbLine
 10
3.8350364852
 20
4.9483448317
 30
0.0
 11
3.7141396685
 21
4.9483448317
 31
0.0
  0
LINE
  5
543
330
1F
100
AcDbEntity
  8
0
  6
Continuous
 62
     7
370
    30
100
AcDbLine
 10
3.6955993093
 20
4.9341997284
 30
0.0
 11
3.8365993471
 21
4.9341997284
 31
0.0
  0
LINE
  5
544
330
1F
100
AcDbEntity
  8
0
  6
Continuous
 62
     7
370
    30
100
AcDbLine
 10
3.7141396685
 20
6.2816780756
 30
0.0
 11
3.6710993657
 21
6.2816780756
 31
0.0
  0
LINE
  5
545
330
1F
100
AcDbEntity
  8
0
  6
Continuous
 62
     7
370
    30
100
AcDbLine
 10
3.8610992908
 20
6.2816780756
 30
0.0
 11
3.7141396685
 21
6.2816780756
 31
0.0
  0
LINE
  5
546
330
1F
100
AcDbEntity
  8
0
  6
Continuous
 62
     7
370
    30
100
AcDbLine
 10
3.6955993093
 20
6.267533119
 30
0.0
 11
3.8365993471
 21
6.267533119
 31
0.0
  0
LINE
  5
547
330
1F
100
AcDbEntity
  8
0
  6
Continuous
 62
     7
370
    30
100
AcDbLine
 10
3.7275398603
 20
6.9069343192
 30
0.0
 11
3.6955993093
 21
6.9069343192
 31
0.0
  0
LINE
  5
548
330
1F
100
AcDbEntity
  8
0
  6
Continuous
 62
     7
370
    30
100
AcDbLine
 10
3.8365993471
 20
6.9069343192
 30
0.0
 11
3.7275398603
 21
6.9069343192
 31
0.0
  0
LINE
  5
549
330
1F
100
AcDbEntity
  8
0
  6
Continuous
 62
     7
370
    30
100
AcDbLine
 10
3.7275398603
 20
5.0736010447
 30
0.0
 11
3.6955993093
 21
5.0736010447
 31
0.0
  0
LINE
  5
54A
330
1F
100
AcDbEntity
  8
0
  6
Continuous
 62
     7
370
    30
100
AcDbLine
 10
3.8365993471
 20
5.0736010447
 30
0.0
 11
3.7275398603
 21
5.0736010447
 31
0.0
  0
LINE
  5
54B
330
1F
100
AcDbEntity
  8
0
  6
Continuous
 62
     7
370
    30
100
AcDbLine
 10
3.7141396685
 20
5.0594559415
 30
0.0
 11
3.6710993657
 21
5.0594559415
 31
0.0
  0
LINE
  5
54C
330
1F
100
AcDbEntity
  8
0
  6
Continuous
 62
     7
370
    30
100
AcDbLine
 10
3.8610992908
 20
5.0594559415
 30
0.0
 11
3.7141396685
 21
5.0594559415
 31
0.0
  0
LINE
  5
54D
330
1F
100
AcDbEntity
  8
0
  6
Continuous
 62
     7
370
    30
100
AcDbLine
 10
3.6955993093
 20
5.9341997164
 30
0.0
 11
3.8365993471
 21
5.9341997164
 31
0.0
  0
LINE
  5
54E
330
1F
100
AcDbEntity
  8
0
  6
Continuous
 62
     7
370
    30
100
AcDbLine
 10
3.6955993093
 20
5.9897552346
 30
0.0
 11
3.8365993471
 21
5.9897552346
 31
0.0
  0
LINE
  5
54F
330
1F
100
AcDbEntity
  8
0
  6
Continuous
 62
     7
370
    30
100
AcDbLine
 10
3.7275398603
 20
4.7958232337
 30
0.0
 11
3.6955993093
 21
4.7958232337
 31
0.0
  0
LINE
  5
550
330
1F
100
AcDbEntity
  8
0
  6
Continuous
 62
     7
370
    30
100
AcDbLine
 10
3.8327923644
 20
4.7958232337
 30
0.0
 11
3.7275398603
 21
4.7958232337
 31
0.0
  0
LINE
  5
551
330
1F
100
AcDbEntity
  8
0
  6
Continuous
 62
     7
370
    30
100
AcDbLine
 10
3.7275398603
 20
6.6847122464
 30
0.0
 11
3.6955993093
 21
6.6847122464
 31
0.0
  0
LINE
  5
552
330
1F
100
AcDbEntity
  8
0
  6
Continuous
 62
     7
370
    30
100
AcDbLine
 10
3.8365993471
 20
6.6847122464
 30
0.0
 11
3.7275398603
 21
6.6847122464
 31
0.0
  0
LINE
  5
553
330
1F
100
AcDbEntity
  8
0
  6
Continuous
 62
     7
370
    30
100
AcDbLine
 10
3.7141396685
 20
6.6705669965
 30
0.0
 11
3.6710993657
 21
6.6705669965
 31
0.0
  0
LINE
  5
554
330
1F
100
AcDbEntity
  8
0
  6
Continuous
 62
     7
370
    30
100
AcDbLine
 10
3.8610992908
 20
6.6705669965
 30
0.0
 11
3.7141396685
 21
6.6705669965
 31
0.0
  0
LINE
  5
555
330
1F
100
AcDbEntity
  8
0
  6
Continuous
 62
     7
370
    30
100
AcDbLine
 10
3.6955993093
 20
6.8230885945
 30
0.0
 11
3.8365993471
 21
6.8230885945
 31
0.0
  0
LINE
  5
556
330
1F
100
AcDbEntity
  8
0
  6
Continuous
 62
     7
370
    30
100
AcDbLine
 10
3.7275398603
 20
6.7958232828
 30
0.0
 11
3.6955993093
 21
6.7958232828
 31
0.0
  0
LINE
  5
557
330
1F
100
AcDbEntity
  8
0
  6
Continuous
 62
     7
370
    30
100
AcDbLine
 10
3.8365993471
 20
6.7958232828
 30
0.0
 11
3.7275398603
 21
6.7958232828
 31
0.0
  0
LINE
  5
558
330
1F
100
AcDbEntity
  8
0
  6
Continuous
 62
     7
370
    30
100
AcDbLine
 10
3.7141396685
 20
6.7816780329
 30
0.0
 11
3.6710993657
 21
6.7816780329
 31
0.0
  0
LINE
  5
559
330
1F
100
AcDbEntity
  8
0
  6
Continuous
 62
     7
370
    30
100
AcDbLine
 10
3.8610992908
 20
6.7816780329
 30
0.0
 11
3.7141396685
 21
6.7816780329
 31
0.0
  0
LINE
  5
55A
330
1F
100
AcDbEntity
  8
0
  6
Continuous
 62
     7
370
    30
100
AcDbLine
 10
3.7275398603
 20
6.1847121424
 30
0.0
 11
3.6955993093
 21
6.1847121424
 31
0.0
  0
LINE
  5
55B
330
1F
100
AcDbEntity
  8
0
  6
Continuous
 62
     7
370
    30
100
AcDbLine
 10
3.8365993471
 20
6.1847121424
 30
0.0
 11
3.7275398603
 21
6.1847121424
 31
0.0
  0
LINE
  5
55C
330
1F
100
AcDbEntity
  8
0
  6
Continuous
 62
     7
370
    30
100
AcDbLine
 10
3.7141396685
 20
6.1705670392
 30
0.0
 11
3.6710993657
 21
6.1705670392
 31
0.0
  0
LINE
  5
55D
330
1F
100
AcDbEntity
  8
0
  6
Continuous
 62
     7
370
    30
100
AcDbLine
 10
3.8610992908
 20
6.1705670392
 30
0.0
 11
3.7141396685
 21
6.1705670392
 31
0.0
  0
LINE
  5
55E
330
1F
100
AcDbEntity
  8
0
  6
Continuous
 62
     7
370
    30
100
AcDbLine
 10
3.7275398603
 20
5.7402677033
 30
0.0
 11
3.6955993093
 21
5.7402677033
 31
0.0
  0
LINE
  5
55F
330
1F
100
AcDbEntity
  8
0
  6
Continuous
 62
     7
370
    30
100
AcDbLine
 10
3.8365993471
 20
5.7402677033
 30
0.0
 11
3.7275398603
 21
5.7402677033
 31
0.0
  0
LINE
  5
560
330
1F
100
AcDbEntity
  8
0
  6
Continuous
 62
     7
370
    30
100
AcDbLine
 10
3.7141396685
 20
5.7816781183
 30
0.0
 11
3.6710993657
 21
5.7816781183
 31
0.0
  0
LINE
  5
561
330
1F
100
AcDbEntity
  8
0
  6
Continuous
 62
     7
370
    30
100
AcDbLine
 10
3.8610992908
 20
5.7816781183
 30
0.0
 11
3.7141396685
 21
5.7816781183
 31
0.0
  0
LINE
  5
562
330
1F
100
AcDbEntity
  8
0
  6
Continuous
 62
     7
370
    30
100
AcDbLine
 10
3.6955993093
 20
5.767533015
 30
0.0
 11
3.8365993471
 21
5.767533015
 31
0.0
  0
LINE
  5
563
330
1F
100
AcDbEntity
  8
0
  6
Continuous
 62
     7
370
    30
100
AcDbLine
 10
3.7141396685
 20
5.8372337832
 30
0.0
 11
3.6710993657
 21
5.8372337832
 31
0.0
  0
LINE
  5
564
330
1F
100
AcDbEntity
  8
0
  6
Continuous
 62
     7
370
    30
100
AcDbLine
 10
3.8610992908
 20
5.8372337832
 30
0.0
 11
3.7141396685
 21
5.8372337832
 31
0.0
  0
LINE
  5
565
330
1F
100
AcDbEntity
  8
0
  6
Continuous
 62
     7
370
    30
100
AcDbLine
 10
3.6955993093
 20
5.8230886799
 30
0.0
 11
3.8365993471
 21
5.8230886799
 31
0.0
  0
LINE
  5
566
330
1F
100
AcDbEntity
  8
0
  6
Continuous
 62
     7
370
    30
100
AcDbLine
 10
3.7141396685
 20
5.8927893014
 30
0.0
 11
3.6710993657
 21
5.8927893014
 31
0.0
  0
LINE
  5
567
330
1F
100
AcDbEntity
  8
0
  6
Continuous
 62
     7
370
    30
100
AcDbLine
 10
3.8610992908
 20
5.8927893014
 30
0.0
 11
3.7141396685
 21
5.8927893014
 31
0.0
  0
LINE
  5
568
330
1F
100
AcDbEntity
  8
0
  6
Continuous
 62
     7
370
    30
100
AcDbLine
 10
3.6955993093
 20
5.8786441981
 30
0.0
 11
3.8365993471
 21
5.8786441981
 31
0.0
  0
LINE
  5
569
330
1F
100
AcDbEntity
  8
0
  6
Continuous
 62
     7
370
    30
100
AcDbLine
 10
3.6955993093
 20
4.7119775089
 30
0.0
 11
3.8365993471
 21
4.7119775089
 31
0.0
  0
LINE
  5
56A
330
1F
100
AcDbEntity
  8
0
  6
Continuous
 62
     7
370
    30
100
AcDbLine
 10
3.6955993093
 20
6.6564220399
 30
0.0
 11
3.8365993471
 21
6.6564220399
 31
0.0
  0
LINE
  5
56B
330
1F
100
AcDbEntity
  8
0
  6
Continuous
 62
     7
370
    30
100
AcDbLine
 10
3.7275398603
 20
6.1291566242
 30
0.0
 11
3.6955993093
 21
6.1291566242
 31
0.0
  0
LINE
  5
56C
330
1F
100
AcDbEntity
  8
0
  6
Continuous
 62
     7
370
    30
100
AcDbLine
 10
3.8365993471
 20
6.1291566242
 30
0.0
 11
3.7275398603
 21
6.1291566242
 31
0.0
  0
LINE
  5
56D
330
1F
100
AcDbEntity
  8
0
  6
Continuous
 62
     7
370
    30
100
AcDbLine
 10
3.7141396685
 20
6.1150115209
 30
0.0
 11
3.6710993657
 21
6.1150115209
 31
0.0
  0
LINE
  5
56E
330
1F
100
AcDbEntity
  8
0
  6
Continuous
 62
     7
370
    30
100
AcDbLine
 10
3.8610992908
 20
6.1150115209
 30
0.0
 11
3.7141396685
 21
6.1150115209
 31
0.0
  0
LINE
  5
56F
330
1F
100
AcDbEntity
  8
0
  6
Continuous
 62
     7
370
    30
100
AcDbLine
 10
3.6955993093
 20
6.1564219359
 30
0.0
 11
3.8365993471
 21
6.1564219359
 31
0.0
  0
LINE
  5
570
330
1F
100
AcDbEntity
  8
0
  6
Continuous
 62
     7
370
    30
100
AcDbLine
 10
3.7141396685
 20
6.2261225574
 30
0.0
 11
3.6710993657
 21
6.2261225574
 31
0.0
  0
LINE
  5
571
330
1F
100
AcDbEntity
  8
0
  6
Continuous
 62
     7
370
    30
100
AcDbLine
 10
3.8610992908
 20
6.2261225574
 30
0.0
 11
3.7141396685
 21
6.2261225574
 31
0.0
  0
LINE
  5
572
330
1F
100
AcDbEntity
  8
0
  6
Continuous
 62
     7
370
    30
100
AcDbLine
 10
3.6955993093
 20
6.2119776008
 30
0.0
 11
3.8365993471
 21
6.2119776008
 31
0.0
  0
LINE
  5
573
330
1F
100
AcDbEntity
  8
0
  6
Continuous
 62
     7
370
    30
100
AcDbLine
 10
3.7141396685
 20
6.3372335938
 30
0.0
 11
3.6710993657
 21
6.3372335938
 31
0.0
  0
LINE
  5
574
330
1F
100
AcDbEntity
  8
0
  6
Continuous
 62
     7
370
    30
100
AcDbLine
 10
3.8610992908
 20
6.3372335938
 30
0.0
 11
3.7141396685
 21
6.3372335938
 31
0.0
  0
LINE
  5
575
330
1F
100
AcDbEntity
  8
0
  6
Continuous
 62
     7
370
    30
100
AcDbLine
 10
3.6955993093
 20
6.3230886372
 30
0.0
 11
3.8365993471
 21
6.3230886372
 31
0.0
  0
LINE
  5
576
330
1F
100
AcDbEntity
  8
0
  6
Continuous
 62
     7
370
    30
100
AcDbLine
 10
3.7275398603
 20
5.7958232216
 30
0.0
 11
3.6955993093
 21
5.7958232216
 31
0.0
  0
LINE
  5
577
330
1F
100
AcDbEntity
  8
0
  6
Continuous
 62
     7
370
    30
100
AcDbLine
 10
3.8365993471
 20
5.7958232216
 30
0.0
 11
3.7275398603
 21
5.7958232216
 31
0.0
  0
LINE
  5
578
330
1F
100
AcDbEntity
  8
0
  6
Continuous
 62
     7
370
    30
100
AcDbLine
 10
3.7275398603
 20
5.8513787398
 30
0.0
 11
3.6955993093
 21
5.8513787398
 31
0.0
  0
LINE
  5
579
330
1F
100
AcDbEntity
  8
0
  6
Continuous
 62
     7
370
    30
100
AcDbLine
 10
3.8365993471
 20
5.8513787398
 30
0.0
 11
3.7275398603
 21
5.8513787398
 31
0.0
  0
LINE
  5
57A
330
1F
100
AcDbEntity
  8
0
  6
Continuous
 62
     7
370
    30
100
AcDbLine
 10
3.7275398603
 20
5.9069344047
 30
0.0
 11
3.6955993093
 21
5.9069344047
 31
0.0
  0
LINE
  5
57B
330
1F
100
AcDbEntity
  8
0
  6
Continuous
 62
     7
370
    30
100
AcDbLine
 10
3.8365993471
 20
5.9069344047
 30
0.0
 11
3.7275398603
 21
5.9069344047
 31
0.0
  0
LINE
  5
57C
330
1F
100
AcDbEntity
  8
0
  6
Continuous
 62
     7
370
    30
100
AcDbLine
 10
3.7141396685
 20
6.7261225147
 30
0.0
 11
3.6710993657
 21
6.7261225147
 31
0.0
  0
LINE
  5
57D
330
1F
100
AcDbEntity
  8
0
  6
Continuous
 62
     7
370
    30
100
AcDbLine
 10
3.8610992908
 20
6.7261225147
 30
0.0
 11
3.7141396685
 21
6.7261225147
 31
0.0
  0
LINE
  5
57E
330
1F
100
AcDbEntity
  8
0
  6
Continuous
 62
     7
370
    30
100
AcDbLine
 10
3.6955993093
 20
6.7119775581
 30
0.0
 11
3.8365993471
 21
6.7119775581
 31
0.0
  0
LINE
  5
57F
330
1F
100
AcDbEntity
  8
0
  6
Continuous
 62
     7
370
    30
100
AcDbLine
 10
3.7275398603
 20
6.7402677646
 30
0.0
 11
3.6955993093
 21
6.7402677646
 31
0.0
  0
LINE
  5
580
330
1F
100
AcDbEntity
  8
0
  6
Continuous
 62
     7
370
    30
100
AcDbLine
 10
3.8365993471
 20
6.7402677646
 30
0.0
 11
3.7275398603
 21
6.7402677646
 31
0.0
  0
LINE
  5
581
330
1F
100
AcDbEntity
  8
0
  6
Continuous
 62
     7
370
    30
100
AcDbLine
 10
3.6955993093
 20
6.7675330763
 30
0.0
 11
3.8365993471
 21
6.7675330763
 31
0.0
  0
LINE
  5
582
330
1F
100
AcDbEntity
  8
0
  6
Continuous
 62
     7
370
    30
100
AcDbLine
 10
3.7275398603
 20
4.9069343434
 30
0.0
 11
3.6955993093
 21
4.9069343434
 31
0.0
  0
LINE
  5
583
330
1F
100
AcDbEntity
  8
0
  6
Continuous
 62
     7
370
    30
100
AcDbLine
 10
3.8289165959
 20
4.9069343434
 30
0.0
 11
3.7275398603
 21
4.9069343434
 31
0.0
  0
LINE
  5
584
330
1F
100
AcDbEntity
  8
0
  6
Continuous
 62
     7
370
    30
100
AcDbLine
 10
3.7141396685
 20
4.8927893135
 30
0.0
 11
3.6772578279
 21
4.8927893135
 31
0.0
  0
LINE
  5
585
330
1F
100
AcDbEntity
  8
0
  6
Continuous
 62
     7
370
    30
100
AcDbLine
 10
3.8478684969
 20
4.8927893135
 30
0.0
 11
3.7141396685
 21
4.8927893135
 31
0.0
  0
LINE
  5
586
330
1F
100
AcDbEntity
  8
0
  6
Continuous
 62
     7
370
    30
100
AcDbLine
 10
3.7275398603
 20
4.962489935
 30
0.0
 11
3.6955993093
 21
4.962489935
 31
0.0
  0
LINE
  5
587
330
1F
100
AcDbEntity
  8
0
  6
Continuous
 62
     7
370
    30
100
AcDbLine
 10
3.8365993471
 20
4.962489935
 30
0.0
 11
3.7275398603
 21
4.962489935
 31
0.0
  0
LINE
  5
588
330
1F
100
AcDbEntity
  8
0
  6
Continuous
 62
     7
370
    30
100
AcDbLine
 10
3.6955993093
 20
5.0453108382
 30
0.0
 11
3.8365993471
 21
5.0453108382
 31
0.0
  0
LINE
  5
589
330
1F
100
AcDbEntity
  8
0
  6
Continuous
 62
     7
370
    30
100
AcDbLine
 10
3.7275398603
 20
6.3513788437
 30
0.0
 11
3.6955993093
 21
6.3513788437
 31
0.0
  0
LINE
  5
58A
330
1F
100
AcDbEntity
  8
0
  6
Continuous
 62
     7
370
    30
100
AcDbLine
 10
3.8365993471
 20
6.3513788437
 30
0.0
 11
3.7275398603
 21
6.3513788437
 31
0.0
  0
LINE
  5
58B
330
1F
100
AcDbEntity
  8
0
  6
Continuous
 62
     7
370
    30
100
AcDbLine
 10
3.7141396685
 20
6.55945596
 30
0.0
 11
3.6710993657
 21
6.55945596
 31
0.0
  0
LINE
  5
58C
330
1F
100
AcDbEntity
  8
0
  6
Continuous
 62
     7
370
    30
100
AcDbLine
 10
3.8610992908
 20
6.55945596
 30
0.0
 11
3.7141396685
 21
6.55945596
 31
0.0
  0
LINE
  5
58D
330
1F
100
AcDbEntity
  8
0
  6
Continuous
 62
     7
370
    30
100
AcDbLine
 10
3.7275398603
 20
6.5736009166
 30
0.0
 11
3.6955993093
 21
6.5736009166
 31
0.0
  0
LINE
  5
58E
330
1F
100
AcDbEntity
  8
0
  6
Continuous
 62
     7
370
    30
100
AcDbLine
 10
3.8365993471
 20
6.5736009166
 30
0.0
 11
3.7275398603
 21
6.5736009166
 31
0.0
  0
LINE
  5
58F
330
1F
100
AcDbEntity
  8
0
  6
Continuous
 62
     7
370
    30
100
AcDbLine
 10
3.7275398603
 20
6.0736009593
 30
0.0
 11
3.6955993093
 21
6.0736009593
 31
0.0
  0
LINE
  5
590
330
1F
100
AcDbEntity
  8
0
  6
Continuous
 62
     7
370
    30
100
AcDbLine
 10
3.8365993471
 20
6.0736009593
 30
0.0
 11
3.7275398603
 21
6.0736009593
 31
0.0
  0
LINE
  5
591
330
1F
100
AcDbEntity
  8
0
  6
Continuous
 62
     7
370
    30
100
AcDbLine
 10
3.6955993093
 20
6.1008664177
 30
0.0
 11
3.8365993471
 21
6.1008664177
 31
0.0
  0
LINE
  5
592
330
1F
100
AcDbEntity
  8
0
  6
Continuous
 62
     7
370
    30
100
AcDbLine
 10
3.7141396685
 20
6.4483449236
 30
0.0
 11
3.6710993657
 21
6.4483449236
 31
0.0
  0
LINE
  5
593
330
1F
100
AcDbEntity
  8
0
  6
Continuous
 62
     7
370
    30
100
AcDbLine
 10
3.8610992908
 20
6.4483449236
 30
0.0
 11
3.7141396685
 21
6.4483449236
 31
0.0
  0
LINE
  5
594
330
1F
100
AcDbEntity
  8
0
  6
Continuous
 62
     7
370
    30
100
AcDbLine
 10
3.6955993093
 20
6.4341996737
 30
0.0
 11
3.8365993471
 21
6.4341996737
 31
0.0
  0
LINE
  5
595
330
1F
100
AcDbEntity
  8
0
  6
Continuous
 62
     7
370
    30
100
AcDbLine
 10
3.7275398603
 20
6.2402676606
 30
0.0
 11
3.6955993093
 21
6.2402676606
 31
0.0
  0
LINE
  5
596
330
1F
100
AcDbEntity
  8
0
  6
Continuous
 62
     7
370
    30
100
AcDbLine
 10
3.8365993471
 20
6.2402676606
 30
0.0
 11
3.7275398603
 21
6.2402676606
 31
0.0
  0
LINE
  5
597
330
1F
100
AcDbEntity
  8
0
  6
Continuous
 62
     7
370
    30
100
AcDbLine
 10
3.6955993093
 20
5.1008663564
 30
0.0
 11
3.8365993471
 21
5.1008663564
 31
0.0
  0
LINE
  5
598
330
1F
100
AcDbEntity
  8
0
  6
Continuous
 62
     7
370
    30
100
AcDbLine
 10
3.7275398603
 20
6.2958233255
 30
0.0
 11
3.6955993093
 21
6.2958233255
 31
0.0
  0
LINE
  5
599
330
1F
100
AcDbEntity
  8
0
  6
Continuous
 62
     7
370
    30
100
AcDbLine
 10
3.8365993471
 20
6.2958233255
 30
0.0
 11
3.7275398603
 21
6.2958233255
 31
0.0
  0
LINE
  5
59A
330
1F
100
AcDbEntity
  8
0
  6
Continuous
 62
     7
370
    30
100
AcDbLine
 10
3.7275398603
 20
6.406934362
 30
0.0
 11
3.6955993093
 21
6.406934362
 31
0.0
  0
LINE
  5
59B
330
1F
100
AcDbEntity
  8
0
  6
Continuous
 62
     7
370
    30
100
AcDbLine
 10
3.8365993471
 20
6.406934362
 30
0.0
 11
3.7275398603
 21
6.406934362
 31
0.0
  0
LINE
  5
59C
330
1F
100
AcDbEntity
  8
0
  6
Continuous
 62
     7
370
    30
100
AcDbLine
 10
3.7141396685
 20
6.3927894054
 30
0.0
 11
3.6710993657
 21
6.3927894054
 31
0.0
  0
LINE
  5
59D
330
1F
100
AcDbEntity
  8
0
  6
Continuous
 62
     7
370
    30
100
AcDbLine
 10
3.8610992908
 20
6.3927894054
 30
0.0
 11
3.7141396685
 21
6.3927894054
 31
0.0
  0
LINE
  5
59E
330
1F
100
AcDbEntity
  8
0
  6
Continuous
 62
     7
370
    30
100
AcDbLine
 10
3.7141396685
 20
6.6150114782
 30
0.0
 11
3.6710993657
 21
6.6150114782
 31
0.0
  0
LINE
  5
59F
330
1F
100
AcDbEntity
  8
0
  6
Continuous
 62
     7
370
    30
100
AcDbLine
 10
3.8610992908
 20
6.6150114782
 30
0.0
 11
3.7141396685
 21
6.6150114782
 31
0.0
  0
LINE
  5
5A0
330
1F
100
AcDbEntity
  8
0
  6
Continuous
 62
     7
370
    30
100
AcDbLine
 10
3.6955993093
 20
6.6008665216
 30
0.0
 11
3.8365993471
 21
6.6008665216
 31
0.0
  0
LINE
  5
5A1
330
1F
100
AcDbEntity
  8
0
  6
Continuous
 62
     7
370
    30
100
AcDbLine
 10
3.6955993093
 20
4.8786442102
 30
0.0
 11
3.8363290436
 21
4.8786442102
 31
0.0
  0
LINE
  5
5A2
330
1F
100
AcDbEntity
  8
0
  6
Continuous
 62
     7
370
    30
100
AcDbLine
 10
3.7275398603
 20
6.4624898802
 30
0.0
 11
3.6955993093
 21
6.4624898802
 31
0.0
  0
LINE
  5
5A3
330
1F
100
AcDbEntity
  8
0
  6
Continuous
 62
     7
370
    30
100
AcDbLine
 10
3.8365993471
 20
6.4624898802
 30
0.0
 11
3.7275398603
 21
6.4624898802
 31
0.0
  0
LINE
  5
5A4
330
1F
100
AcDbEntity
  8
0
  6
Continuous
 62
     7
370
    30
100
AcDbLine
 10
3.7275398603
 20
5.0180454532
 30
0.0
 11
3.6955993093
 21
5.0180454532
 31
0.0
  0
LINE
  5
5A5
330
1F
100
AcDbEntity
  8
0
  6
Continuous
 62
     7
370
    30
100
AcDbLine
 10
3.8365993471
 20
5.0180454532
 30
0.0
 11
3.7275398603
 21
5.0180454532
 31
0.0
  0
LINE
  5
5A6
330
1F
100
AcDbEntity
  8
0
  6
Continuous
 62
     7
370
    30
100
AcDbLine
 10
3.7141396685
 20
5.0039004233
 30
0.0
 11
3.6710993657
 21
5.0039004233
 31
0.0
  0
LINE
  5
5A7
330
1F
100
AcDbEntity
  8
0
  6
Continuous
 62
     7
370
    30
100
AcDbLine
 10
3.8610992908
 20
5.0039004233
 30
0.0
 11
3.7141396685
 21
5.0039004233
 31
0.0
  0
LINE
  5
5A8
330
1F
100
AcDbEntity
  8
0
  6
Continuous
 62
     7
370
    30
100
AcDbLine
 10
3.6955993093
 20
4.98975532
 30
0.0
 11
3.8365993471
 21
4.98975532
 31
0.0
  0
LINE
  5
5A9
330
1F
100
AcDbEntity
  8
0
  6
Continuous
 62
     7
370
    30
100
AcDbLine
 10
3.7275398603
 20
4.8513788252
 30
0.0
 11
3.6955993093
 21
4.8513788252
 31
0.0
  0
LINE
  5
5AA
330
1F
100
AcDbEntity
  8
0
  6
Continuous
 62
     7
370
    30
100
AcDbLine
 10
3.8365993471
 20
4.8513788252
 30
0.0
 11
3.7275398603
 21
4.8513788252
 31
0.0
  0
LINE
  5
5AB
330
1F
100
AcDbEntity
  8
0
  6
Continuous
 62
     7
370
    30
100
AcDbLine
 10
3.6955993093
 20
6.3786441554
 30
0.0
 11
3.8365993471
 21
6.3786441554
 31
0.0
  0
LINE
  5
5AC
330
1F
100
AcDbEntity
  8
0
  6
Continuous
 62
     7
370
    30
100
AcDbLine
 10
3.7275398603
 20
6.6291564348
 30
0.0
 11
3.6955993093
 21
6.6291564348
 31
0.0
  0
LINE
  5
5AD
330
1F
100
AcDbEntity
  8
0
  6
Continuous
 62
     7
370
    30
100
AcDbLine
 10
3.8365993471
 20
6.6291564348
 30
0.0
 11
3.7275398603
 21
6.6291564348
 31
0.0
  0
LINE
  5
5AE
330
1F
100
AcDbEntity
  8
0
  6
Continuous
 62
     7
370
    30
100
AcDbLine
 10
3.7275398603
 20
6.944809375
 30
0.0
 11
3.6955993093
 21
6.944809375
 31
0.0
  0
LINE
  5
5AF
330
1F
100
AcDbEntity
  8
0
  6
Continuous
 62
     7
370
    30
100
AcDbLine
 10
3.8365993471
 20
6.944809375
 30
0.0
 11
3.7275398603
 21
6.944809375
 31
0.0
  0
LINE
  5
5B0
330
1F
100
AcDbEntity
  8
0
  6
Continuous
 62
     7
370
    30
100
AcDbLine
 10
3.7263612606
 20
4.5173168643
 30
0.0
 11
3.7249504902
 21
4.507388599
 31
0.0
  0
LINE
  5
5B1
330
1F
100
AcDbEntity
  8
0
  6
Continuous
 62
     7
370
    30
100
AcDbLine
 10
3.8067379188
 20
4.5109801308
 30
0.0
 11
3.8072481662
 21
4.507388599
 31
0.0
  0
LINE
  5
5B2
330
1F
100
AcDbEntity
  8
0
  6
Continuous
 62
     7
370
    30
100
AcDbLine
 10
3.7575357805
 20
4.5095592406
 30
0.0
 11
3.7574711012
 21
4.507388599
 31
0.0
  0
LINE
  5
5B3
330
1F
100
AcDbEntity
  8
0
  6
Continuous
 62
     7
370
    30
100
AcDbLine
 10
3.1059157747
 20
4.9770115272
 30
0.0
 11
3.0410992435
 21
4.9770115272
 31
0.0
  0
LINE
  5
5B4
330
1F
100
AcDbEntity
  8
0
  6
Continuous
 62
     7
370
    30
100
AcDbLine
 10
3.0970994499
 20
5.0270114496
 30
0.0
 11
3.1059157747
 21
4.9770115272
 31
0.0
  0
LINE
  5
5B5
330
1F
100
AcDbEntity
  8
0
  6
Continuous
 62
     7
370
    30
100
AcDbLine
 10
3.1306634355
 20
5.0670115342
 30
0.0
 11
3.0970994499
 21
5.0270114496
 31
0.0
  0
LINE
  5
5B6
330
1F
100
AcDbEntity
  8
0
  6
Continuous
 62
     7
370
    30
100
AcDbLine
 10
3.1370993878
 20
5.0670115342
 30
0.0
 11
3.1306634355
 21
5.0670115342
 31
0.0
  0
ARC
  5
5B7
330
1F
100
AcDbEntity
  8
0
  6
Continuous
 62
     7
370
    30
100
AcDbCircle
 10
3.137099356
 20
5.0570114995
 30
0.0
 40
0.0100000000000007
100
AcDbArc
 50
0.0
 51
90.0
  0
LINE
  5
5B8
330
1F
100
AcDbEntity
  8
0
  6
Continuous
 62
     7
370
    30
100
AcDbLine
 10
3.147099299
 20
4.9817042197
 30
0.0
 11
3.147099299
 21
5.0570114764
 31
0.0
  0
ARC
  5
5B9
330
1F
100
AcDbEntity
  8
0
  6
Continuous
 62
     7
370
    30
100
AcDbCircle
 10
3.102099356
 20
4.9817042003
 30
0.0
 40
0.0449999999999995
100
AcDbArc
 50
276.6997651778
 51
0.0
  0
ARC
  5
5BA
330
1F
100
AcDbEntity
  8
0
  6
Continuous
 62
     7
370
    30
100
AcDbCircle
 10
3.116099356
 20
4.862523665
 30
0.0
 40
0.0750000000000009
100
AcDbArc
 50
96.6997651778
 51
180.0
  0
LINE
  5
5BB
330
1F
100
AcDbEntity
  8
0
  6
Continuous
 62
     7
370
    30
100
AcDbLine
 10
3.0410992435
 20
4.185629666
 30
0.0
 11
3.0410992435
 21
4.8625236765
 31
0.0
  0
ARC
  5
5BC
330
1F
100
AcDbEntity
  8
0
  6
Continuous
 62
     7
370
    30
100
AcDbCircle
 10
2.968099356
 20
4.1020114995
 30
0.0
 40
0.1109999999999996
100
AcDbArc
 50
311.1214761682
 51
48.8785238318
  0
LINE
  5
5BD
330
1F
100
AcDbEntity
  8
0
  6
Continuous
 62
     7
370
    30
100
AcDbLine
 10
3.0410992435
 20
3.8400114999
 30
0.0
 11
3.0410992435
 21
4.0183933179
 31
0.0
  0
LINE
  5
5BE
330
1F
100
AcDbEntity
  8
0
  6
Continuous
 62
     7
370
    30
100
AcDbLine
 10
3.3910993602
 20
3.8400114999
 30
0.0
 11
3.0410992435
 21
3.8400114999
 31
0.0
  0
LINE
  5
5BF
330
1F
100
AcDbEntity
  8
0
  6
Continuous
 62
     7
370
    30
100
AcDbLine
 10
3.3910993602
 20
3.7900114995
 30
0.0
 11
3.3910993602
 21
3.8400114999
 31
0.0
  0
LINE
  5
5C0
330
1F
100
AcDbEntity
  8
0
  6
Continuous
 62
     7
370
    30
100
AcDbLine
 10
2.2660992363
 20
3.7900114995
 30
0.0
 11
3.3910993602
 21
3.7900114995
 31
0.0
  0
LINE
  5
5C1
330
1F
100
AcDbEntity
  8
0
  6
Continuous
 62
     7
370
    30
100
AcDbLine
 10
2.2660992363
 20
3.8830115019
 30
0.0
 11
2.2660992363
 21
3.7900114995
 31
0.0
  0
LINE
  5
5C2
330
1F
100
AcDbEntity
  8
0
  6
Continuous
 62
     7
370
    30
100
AcDbLine
 10
2.3160993787
 20
3.8400114999
 30
0.0
 11
2.3160993787
 21
3.8830115019
 31
0.0
  0
LINE
  5
5C3
330
1F
100
AcDbEntity
  8
0
  6
Continuous
 62
     7
370
    30
100
AcDbLine
 10
2.9910993944
 20
3.8400114999
 30
0.0
 11
2.3160993787
 21
3.8400114999
 31
0.0
  0
LINE
  5
5C4
330
1F
100
AcDbEntity
  8
0
  6
Continuous
 62
     7
370
    30
100
AcDbLine
 10
2.9910993944
 20
3.9934205264
 30
0.0
 11
2.9910993944
 21
3.8400114999
 31
0.0
  0
ARC
  5
5C5
330
1F
100
AcDbEntity
  8
0
  6
Continuous
 62
     7
370
    30
100
AcDbCircle
 10
2.968099356
 20
4.1020114995
 30
0.0
 40
0.1110000000000003
100
AcDbArc
 50
148.4801414201
 51
281.9587374626
  0
ARC
  5
5C6
330
1F
100
AcDbEntity
  8
0
  6
Continuous
 62
     7
370
    30
100
AcDbCircle
 10
2.8947878806
 20
4.1469717884
 30
0.0
 40
0.0250000000000003
100
AcDbArc
 50
328.4801414201
 51
148.4801414201
  0
ARC
  5
5C7
330
1F
100
AcDbEntity
  8
0
  6
Continuous
 62
     7
370
    30
100
AcDbCircle
 10
2.968099356
 20
4.1020114995
 30
0.0
 40
0.0610000000000003
100
AcDbArc
 50
148.4801414201
 51
67.8489785585
  0
LINE
  5
5C8
330
1F
100
AcDbEntity
  8
0
  6
Continuous
 62
     7
370
    30
100
AcDbLine
 10
2.9910993944
 20
5.6020114738
 30
0.0
 11
2.9910993944
 21
4.158509296
 31
0.0
  0
LINE
  5
5C9
330
1F
100
AcDbEntity
  8
0
  6
Continuous
 62
     7
370
    30
100
AcDbLine
 10
3.0410992435
 20
4.9770115272
 30
0.0
 11
3.0410992435
 21
5.6020114738
 31
0.0
  0
LINE
  5
5CA
330
1F
100
AcDbEntity
  8
0
  6
Continuous
 62
     7
370
    30
100
AcDbLine
 10
2.3160993787
 20
3.8830115019
 30
0.0
 11
2.2660992363
 21
3.8830115019
 31
0.0
  0
LINE
  5
5CB
330
1F
100
AcDbEntity
  8
0
  6
Continuous
 62
     7
370
    30
100
AcDbLine
 10
3.0410992435
 20
5.6020114738
 30
0.0
 11
2.9910993944
 21
5.6020114738
 31
0.0
  0
LINE
  5
5CC
330
1F
100
AcDbEntity
  8
0
  6
Continuous
 62
     7
370
    30
100
AcDbLine
 10
8.8850994131
 20
4.9817042197
 30
0.0
 11
8.8850994131
 21
5.0570114764
 31
0.0
  0
ARC
  5
5CD
330
1F
100
AcDbEntity
  8
0
  6
Continuous
 62
     7
370
    30
100
AcDbCircle
 10
8.895099356
 20
5.0570114995
 30
0.0
 40
0.0100000000000007
100
AcDbArc
 50
90.0
 51
180.0
  0
LINE
  5
5CE
330
1F
100
AcDbEntity
  8
0
  6
Continuous
 62
     7
370
    30
100
AcDbLine
 10
8.8950993242
 20
5.0670115342
 30
0.0
 11
8.9015352766
 21
5.0670115342
 31
0.0
  0
LINE
  5
5CF
330
1F
100
AcDbEntity
  8
0
  6
Continuous
 62
     7
370
    30
100
AcDbLine
 10
8.9015352766
 20
5.0670115342
 30
0.0
 11
8.9350992622
 21
5.0270114496
 31
0.0
  0
LINE
  5
5D0
330
1F
100
AcDbEntity
  8
0
  6
Continuous
 62
     7
370
    30
100
AcDbLine
 10
8.9350992622
 20
5.0270114496
 30
0.0
 11
8.9262829373
 21
4.9770115272
 31
0.0
  0
LINE
  5
5D1
330
1F
100
AcDbEntity
  8
0
  6
Continuous
 62
     7
370
    30
100
AcDbLine
 10
8.9262829373
 20
4.9770115272
 30
0.0
 11
8.9910994686
 21
4.9770115272
 31
0.0
  0
LINE
  5
5D2
330
1F
100
AcDbEntity
  8
0
  6
Continuous
 62
     7
370
    30
100
AcDbLine
 10
8.9910994686
 20
4.9770115272
 30
0.0
 11
8.9910994686
 21
5.6020114738
 31
0.0
  0
LINE
  5
5D3
330
1F
100
AcDbEntity
  8
0
  6
Continuous
 62
     7
370
    30
100
AcDbLine
 10
8.9910994686
 20
5.6020114738
 30
0.0
 11
9.0410993176
 21
5.6020114738
 31
0.0
  0
LINE
  5
5D4
330
1F
100
AcDbEntity
  8
0
  6
Continuous
 62
     7
370
    30
100
AcDbLine
 10
9.0410993176
 20
5.6020114738
 30
0.0
 11
9.0410993176
 21
4.158509296
 31
0.0
  0
ARC
  5
5D5
330
1F
100
AcDbEntity
  8
0
  6
Continuous
 62
     7
370
    30
100
AcDbCircle
 10
9.064099356
 20
4.1020114995
 30
0.0
 40
0.0609999999999999
100
AcDbArc
 50
112.1510214415
 51
31.5198585799
  0
ARC
  5
5D6
330
1F
100
AcDbEntity
  8
0
  6
Continuous
 62
     7
370
    30
100
AcDbCircle
 10
9.1374108314
 20
4.1469717884
 30
0.0
 40
0.0250000000000007
100
AcDbArc
 50
31.5198585799
 51
211.5198585799
  0
ARC
  5
5D7
330
1F
100
AcDbEntity
  8
0
  6
Continuous
 62
     7
370
    30
100
AcDbCircle
 10
9.064099356
 20
4.1020114995
 30
0.0
 40
0.1110000000000005
100
AcDbArc
 50
258.0412625374
 51
31.5198585799
  0
LINE
  5
5D8
330
1F
100
AcDbEntity
  8
0
  6
Continuous
 62
     7
370
    30
100
AcDbLine
 10
9.0410993176
 20
3.9934205264
 30
0.0
 11
9.0410993176
 21
3.8400114999
 31
0.0
  0
LINE
  5
5D9
330
1F
100
AcDbEntity
  8
0
  6
Continuous
 62
     7
370
    30
100
AcDbLine
 10
9.0410993176
 20
3.8400114999
 30
0.0
 11
9.7160993333
 21
3.8400114999
 31
0.0
  0
LINE
  5
5DA
330
1F
100
AcDbEntity
  8
0
  6
Continuous
 62
     7
370
    30
100
AcDbLine
 10
9.7160993333
 20
3.8400114999
 30
0.0
 11
9.7160993333
 21
3.8830115019
 31
0.0
  0
ARC
  5
5DB
330
1F
100
AcDbEntity
  8
0
  6
Continuous
 62
     7
370
    30
100
AcDbCircle
 10
8.930099356
 20
4.9817042003
 30
0.0
 40
0.0449999999999985
100
AcDbArc
 50
180.0
 51
263.3002348222
  0
ARC
  5
5DC
330
1F
100
AcDbEntity
  8
0
  6
Continuous
 62
     7
370
    30
100
AcDbCircle
 10
8.916099356
 20
4.862523665
 30
0.0
 40
0.0750000000000011
100
AcDbArc
 50
0.0
 51
83.3002348222
  0
LINE
  5
5DD
330
1F
100
AcDbEntity
  8
0
  6
Continuous
 62
     7
370
    30
100
AcDbLine
 10
8.9910994686
 20
4.185629666
 30
0.0
 11
8.9910994686
 21
4.8625236765
 31
0.0
  0
ARC
  5
5DE
330
1F
100
AcDbEntity
  8
0
  6
Continuous
 62
     7
370
    30
100
AcDbCircle
 10
9.064099356
 20
4.1020114995
 30
0.0
 40
0.1110000000000008
100
AcDbArc
 50
131.1214761682
 51
228.8785238318
  0
LINE
  5
5DF
330
1F
100
AcDbEntity
  8
0
  6
Continuous
 62
     7
370
    30
100
AcDbLine
 10
8.9910994686
 20
3.8400114999
 30
0.0
 11
8.9910994686
 21
4.0183933179
 31
0.0
  0
LINE
  5
5E0
330
1F
100
AcDbEntity
  8
0
  6
Continuous
 62
     7
370
    30
100
AcDbLine
 10
8.6410993518
 20
3.8400114999
 30
0.0
 11
8.9910994686
 21
3.8400114999
 31
0.0
  0
LINE
  5
5E1
330
1F
100
AcDbEntity
  8
0
  6
Continuous
 62
     7
370
    30
100
AcDbLine
 10
8.6410993518
 20
3.7900114995
 30
0.0
 11
8.6410993518
 21
3.8400114999
 31
0.0
  0
LINE
  5
5E2
330
1F
100
AcDbEntity
  8
0
  6
Continuous
 62
     7
370
    30
100
AcDbLine
 10
9.7660994757
 20
3.7900114995
 30
0.0
 11
8.6410993518
 21
3.7900114995
 31
0.0
  0
LINE
  5
5E3
330
1F
100
AcDbEntity
  8
0
  6
Continuous
 62
     7
370
    30
100
AcDbLine
 10
9.7660994757
 20
3.8830115019
 30
0.0
 11
9.7660994757
 21
3.7900114995
 31
0.0
  0
LINE
  5
5E4
330
1F
100
AcDbEntity
  8
0
  6
Continuous
 62
     7
370
    30
100
AcDbLine
 10
9.7160993333
 20
3.8830115019
 30
0.0
 11
9.7660994757
 21
3.8830115019
 31
0.0
  0
LINE
  5
5E5
330
1F
100
AcDbEntity
  8
0
  6
Continuous
 62
     7
370
    30
100
AcDbLine
 10
5.9280993551
 20
5.6020114738
 30
0.0
 11
5.9280993551
 21
5.0353537532
 31
0.0
  0
LINE
  5
5E6
330
1F
100
AcDbEntity
  8
0
  6
Continuous
 62
     7
370
    30
100
AcDbLine
 10
5.9280993551
 20
4.9873125415
 30
0.0
 11
5.9280993551
 21
4.9770115272
 31
0.0
  0
LINE
  5
5E7
330
1F
100
AcDbEntity
  8
0
  6
Continuous
 62
     7
370
    30
100
AcDbLine
 10
5.9280993551
 20
5.6020114738
 30
0.0
 11
5.9910993559
 21
5.6020114738
 31
0.0
  0
LINE
  5
5E8
330
1F
100
AcDbEntity
  8
0
  6
Continuous
 62
     7
370
    30
100
AcDbLine
 10
4.6040993476
 20
5.6020114738
 30
0.0
 11
4.6040993476
 21
5.0353537532
 31
0.0
  0
LINE
  5
5E9
330
1F
100
AcDbEntity
  8
0
  6
Continuous
 62
     7
370
    30
100
AcDbLine
 10
4.6040993476
 20
4.9873125415
 30
0.0
 11
4.6040993476
 21
4.9770115272
 31
0.0
  0
LINE
  5
5EA
330
1F
100
AcDbEntity
  8
0
  6
Continuous
 62
     7
370
    30
100
AcDbLine
 10
4.6040993476
 20
5.6020114738
 30
0.0
 11
4.5410994087
 21
5.6020114738
 31
0.0
  0
LINE
  5
5EB
330
1F
100
AcDbEntity
  8
0
  6
Continuous
 62
     7
370
    30
100
AcDbLine
 10
4.619099361
 20
5.1020115165
 30
0.0
 11
4.619099361
 21
5.6020114738
 31
0.0
  0
LINE
  5
5EC
330
1F
100
AcDbEntity
  8
0
  6
Continuous
 62
     7
370
    30
100
AcDbLine
 10
4.6040993476
 20
5.1020115165
 30
0.0
 11
4.619099361
 21
5.1020115165
 31
0.0
  0
LINE
  5
5ED
330
1F
100
AcDbEntity
  8
0
  6
Continuous
 62
     7
370
    30
100
AcDbLine
 10
4.619099361
 20
5.6020114738
 30
0.0
 11
4.6040993476
 21
5.6020114738
 31
0.0
  0
LINE
  5
5EE
330
1F
100
AcDbEntity
  8
0
  6
Continuous
 62
     7
370
    30
100
AcDbLine
 10
5.9130993601
 20
5.6020114738
 30
0.0
 11
5.9130993601
 21
5.1020115165
 31
0.0
  0
LINE
  5
5EF
330
1F
100
AcDbEntity
  8
0
  6
Continuous
 62
     7
370
    30
100
AcDbLine
 10
5.9280993551
 20
5.6020114738
 30
0.0
 11
5.9130993601
 21
5.6020114738
 31
0.0
  0
LINE
  5
5F0
330
1F
100
AcDbEntity
  8
0
  6
Continuous
 62
     7
370
    30
100
AcDbLine
 10
5.9130993601
 20
5.1020115165
 30
0.0
 11
5.9280993551
 21
5.1020115165
 31
0.0
  0
LINE
  5
5F1
330
1F
100
AcDbEntity
  8
0
  6
Continuous
 62
     7
370
    30
100
AcDbLine
 10
5.8600993598
 20
5.618011449
 30
0.0
 11
5.8600993598
 21
5.6960115479
 31
0.0
  0
LINE
  5
5F2
330
1F
100
AcDbEntity
  8
0
  6
Continuous
 62
     7
370
    30
100
AcDbLine
 10
4.6720993887
 20
5.618011449
 30
0.0
 11
5.8600993598
 21
5.618011449
 31
0.0
  0
LINE
  5
5F3
330
1F
100
AcDbEntity
  8
0
  6
Continuous
 62
     7
370
    30
100
AcDbLine
 10
4.6720993887
 20
5.6960115479
 30
0.0
 11
4.6720993887
 21
5.618011449
 31
0.0
  0
LINE
  5
5F4
330
1F
100
AcDbEntity
  8
0
  6
Continuous
 62
     7
370
    30
100
AcDbLine
 10
4.6720993887
 20
5.6960115479
 30
0.0
 11
5.8600993598
 21
5.6960115479
 31
0.0
  0
LINE
  5
5F5
330
1F
100
AcDbEntity
  8
0
  6
Continuous
 62
     7
370
    30
100
AcDbLine
 10
5.8600993598
 20
5.6020114738
 30
0.0
 11
5.8600993598
 21
5.618011449
 31
0.0
  0
LINE
  5
5F6
330
1F
100
AcDbEntity
  8
0
  6
Continuous
 62
     7
370
    30
100
AcDbLine
 10
5.9130993601
 20
5.1020115165
 30
0.0
 11
5.3695559383
 21
5.1020115165
 31
0.0
  0
LINE
  5
5F7
330
1F
100
AcDbEntity
  8
0
  6
Continuous
 62
     7
370
    30
100
AcDbLine
 10
5.3525917876
 20
5.1020115165
 30
0.0
 11
5.1580399684
 21
5.1020115165
 31
0.0
  0
LINE
  5
5F8
330
1F
100
AcDbEntity
  8
0
  6
Continuous
 62
     7
370
    30
100
AcDbLine
 10
5.1410757444
 20
5.1020115165
 30
0.0
 11
4.619099361
 21
5.1020115165
 31
0.0
  0
LINE
  5
5F9
330
1F
100
AcDbEntity
  8
0
  6
Continuous
 62
     7
370
    30
100
AcDbLine
 10
5.8600993598
 20
5.6020114738
 30
0.0
 11
5.9130993601
 21
5.6020114738
 31
0.0
  0
LINE
  5
5FA
330
1F
100
AcDbEntity
  8
0
  6
Continuous
 62
     7
370
    30
100
AcDbLine
 10
4.619099361
 20
5.6020114738
 30
0.0
 11
4.6720993887
 21
5.6020114738
 31
0.0
  0
LINE
  5
5FB
330
1F
100
AcDbEntity
  8
0
  6
Continuous
 62
     7
370
    30
100
AcDbLine
 10
4.6720993887
 20
5.618011449
 30
0.0
 11
4.6720993887
 21
5.6020114738
 31
0.0
  0
LINE
  5
5FC
330
1F
100
AcDbEntity
  8
0
  6
Continuous
 62
     7
370
    30
100
AcDbLine
 10
5.0160993681
 20
5.1020115165
 30
0.0
 11
5.0160993681
 21
5.068011496
 31
0.0
  0
LINE
  5
5FD
330
1F
100
AcDbEntity
  8
0
  6
Continuous
 62
     7
370
    30
100
AcDbLine
 10
5.5160993621
 20
5.068011496
 30
0.0
 11
5.5160993621
 21
5.1020115165
 31
0.0
  0
LINE
  5
5FE
330
1F
100
AcDbEntity
  8
0
  6
Continuous
 62
     7
370
    30
100
AcDbLine
 10
5.5160993621
 20
4.9900114704
 30
0.0
 11
5.4433158429
 21
4.9900114704
 31
0.0
  0
LINE
  5
5FF
330
1F
100
AcDbEntity
  8
0
  6
Continuous
 62
     7
370
    30
100
AcDbLine
 10
5.3461966081
 20
4.9900114704
 30
0.0
 11
5.1817460145
 21
4.9900114704
 31
0.0
  0
LINE
  5
600
330
1F
100
AcDbEntity
  8
0
  6
Continuous
 62
     7
370
    30
100
AcDbLine
 10
5.0673158765
 20
4.9900114704
 30
0.0
 11
5.0160993681
 21
4.9900114704
 31
0.0
  0
LINE
  5
601
330
1F
100
AcDbEntity
  8
0
  6
Continuous
 62
     7
370
    30
100
AcDbLine
 10
5.0160993681
 20
4.9900114704
 30
0.0
 11
5.0160993681
 21
5.035376193
 31
0.0
  0
LINE
  5
602
330
1F
100
AcDbEntity
  8
0
  6
Continuous
 62
     7
370
    30
100
AcDbLine
 10
5.0160993681
 20
5.0481219657
 30
0.0
 11
5.0160993681
 21
5.068011496
 31
0.0
  0
LINE
  5
603
330
1F
100
AcDbEntity
  8
0
  6
Continuous
 62
     7
370
    30
100
AcDbLine
 10
5.5160993621
 20
5.068011496
 30
0.0
 11
5.5160993621
 21
5.0389612716
 31
0.0
  0
LINE
  5
604
330
1F
100
AcDbEntity
  8
0
  6
Continuous
 62
     7
370
    30
100
AcDbLine
 10
5.5160993621
 20
5.0248311281
 30
0.0
 11
5.5160993621
 21
4.9900114704
 31
0.0
  0
LINE
  5
605
330
1F
100
AcDbEntity
  8
0
  6
Continuous
 62
     7
370
    30
100
AcDbLine
 10
7.4280993645
 20
5.6020114738
 30
0.0
 11
7.4280993645
 21
5.0353537532
 31
0.0
  0
LINE
  5
606
330
1F
100
AcDbEntity
  8
0
  6
Continuous
 62
     7
370
    30
100
AcDbLine
 10
7.4280993645
 20
4.9873125415
 30
0.0
 11
7.4280993645
 21
4.9770115272
 31
0.0
  0
LINE
  5
607
330
1F
100
AcDbEntity
  8
0
  6
Continuous
 62
     7
370
    30
100
AcDbLine
 10
7.4280993645
 20
5.6020114738
 30
0.0
 11
7.4910993034
 21
5.6020114738
 31
0.0
  0
LINE
  5
608
330
1F
100
AcDbEntity
  8
0
  6
Continuous
 62
     7
370
    30
100
AcDbLine
 10
6.1040993569
 20
5.6020114738
 30
0.0
 11
6.1040993569
 21
5.0353537532
 31
0.0
  0
LINE
  5
609
330
1F
100
AcDbEntity
  8
0
  6
Continuous
 62
     7
370
    30
100
AcDbLine
 10
6.1040993569
 20
4.9873125415
 30
0.0
 11
6.1040993569
 21
4.9770115272
 31
0.0
  0
LINE
  5
60A
330
1F
100
AcDbEntity
  8
0
  6
Continuous
 62
     7
370
    30
100
AcDbLine
 10
6.1040993569
 20
5.6020114738
 30
0.0
 11
6.0410993562
 21
5.6020114738
 31
0.0
  0
LINE
  5
60B
330
1F
100
AcDbEntity
  8
0
  6
Continuous
 62
     7
370
    30
100
AcDbLine
 10
6.119099352
 20
5.6020114738
 30
0.0
 11
6.1040993569
 21
5.6020114738
 31
0.0
  0
LINE
  5
60C
330
1F
100
AcDbEntity
  8
0
  6
Continuous
 62
     7
370
    30
100
AcDbLine
 10
6.119099352
 20
5.1020115165
 30
0.0
 11
6.119099352
 21
5.6020114738
 31
0.0
  0
LINE
  5
60D
330
1F
100
AcDbEntity
  8
0
  6
Continuous
 62
     7
370
    30
100
AcDbLine
 10
6.1040993569
 20
5.1020115165
 30
0.0
 11
6.119099352
 21
5.1020115165
 31
0.0
  0
LINE
  5
60E
330
1F
100
AcDbEntity
  8
0
  6
Continuous
 62
     7
370
    30
100
AcDbLine
 10
7.4130993511
 20
5.6020114738
 30
0.0
 11
7.4130993511
 21
5.1020115165
 31
0.0
  0
LINE
  5
60F
330
1F
100
AcDbEntity
  8
0
  6
Continuous
 62
     7
370
    30
100
AcDbLine
 10
7.4130993511
 20
5.1020115165
 30
0.0
 11
7.4280993645
 21
5.1020115165
 31
0.0
  0
LINE
  5
610
330
1F
100
AcDbEntity
  8
0
  6
Continuous
 62
     7
370
    30
100
AcDbLine
 10
7.4280993645
 20
5.6020114738
 30
0.0
 11
7.4130993511
 21
5.6020114738
 31
0.0
  0
LINE
  5
611
330
1F
100
AcDbEntity
  8
0
  6
Continuous
 62
     7
370
    30
100
AcDbLine
 10
6.1720993522
 20
5.618011449
 30
0.0
 11
7.3600993234
 21
5.618011449
 31
0.0
  0
LINE
  5
612
330
1F
100
AcDbEntity
  8
0
  6
Continuous
 62
     7
370
    30
100
AcDbLine
 10
7.3600993234
 20
5.6020114738
 30
0.0
 11
7.3600993234
 21
5.618011449
 31
0.0
  0
LINE
  5
613
330
1F
100
AcDbEntity
  8
0
  6
Continuous
 62
     7
370
    30
100
AcDbLine
 10
7.3600993234
 20
5.6020114738
 30
0.0
 11
7.4130993511
 21
5.6020114738
 31
0.0
  0
LINE
  5
614
330
1F
100
AcDbEntity
  8
0
  6
Continuous
 62
     7
370
    30
100
AcDbLine
 10
6.119099352
 20
5.6020114738
 30
0.0
 11
6.1720993522
 21
5.6020114738
 31
0.0
  0
LINE
  5
615
330
1F
100
AcDbEntity
  8
0
  6
Continuous
 62
     7
370
    30
100
AcDbLine
 10
7.4130993511
 20
5.1020115165
 30
0.0
 11
6.8695558835
 21
5.1020115165
 31
0.0
  0
LINE
  5
616
330
1F
100
AcDbEntity
  8
0
  6
Continuous
 62
     7
370
    30
100
AcDbLine
 10
6.8525917328
 20
5.1020115165
 30
0.0
 11
6.6580399136
 21
5.1020115165
 31
0.0
  0
LINE
  5
617
330
1F
100
AcDbEntity
  8
0
  6
Continuous
 62
     7
370
    30
100
AcDbLine
 10
6.6410757629
 20
5.1020115165
 30
0.0
 11
6.119099352
 21
5.1020115165
 31
0.0
  0
LINE
  5
618
330
1F
100
AcDbEntity
  8
0
  6
Continuous
 62
     7
370
    30
100
AcDbLine
 10
6.1720993522
 20
5.618011449
 30
0.0
 11
6.1720993522
 21
5.6020114738
 31
0.0
  0
LINE
  5
619
330
1F
100
AcDbEntity
  8
0
  6
Continuous
 62
     7
370
    30
100
AcDbLine
 10
7.3600993234
 20
5.618011449
 30
0.0
 11
7.3600993234
 21
5.6960115479
 31
0.0
  0
LINE
  5
61A
330
1F
100
AcDbEntity
  8
0
  6
Continuous
 62
     7
370
    30
100
AcDbLine
 10
6.1720993522
 20
5.6960115479
 30
0.0
 11
7.3600993234
 21
5.6960115479
 31
0.0
  0
LINE
  5
61B
330
1F
100
AcDbEntity
  8
0
  6
Continuous
 62
     7
370
    30
100
AcDbLine
 10
6.1720993522
 20
5.6960115479
 30
0.0
 11
6.1720993522
 21
5.618011449
 31
0.0
  0
LINE
  5
61C
330
1F
100
AcDbEntity
  8
0
  6
Continuous
 62
     7
370
    30
100
AcDbLine
 10
7.0160993439
 20
5.068011496
 30
0.0
 11
7.0160993439
 21
5.1020115165
 31
0.0
  0
LINE
  5
61D
330
1F
100
AcDbEntity
  8
0
  6
Continuous
 62
     7
370
    30
100
AcDbLine
 10
6.51609935
 20
5.1020115165
 30
0.0
 11
6.51609935
 21
5.068011496
 31
0.0
  0
LINE
  5
61E
330
1F
100
AcDbEntity
  8
0
  6
Continuous
 62
     7
370
    30
100
AcDbLine
 10
7.0160993439
 20
4.9900114704
 30
0.0
 11
6.9433158247
 21
4.9900114704
 31
0.0
  0
LINE
  5
61F
330
1F
100
AcDbEntity
  8
0
  6
Continuous
 62
     7
370
    30
100
AcDbLine
 10
6.8461965533
 20
4.9900114704
 30
0.0
 11
6.6817460331
 21
4.9900114704
 31
0.0
  0
LINE
  5
620
330
1F
100
AcDbEntity
  8
0
  6
Continuous
 62
     7
370
    30
100
AcDbLine
 10
6.5673158583
 20
4.9900114704
 30
0.0
 11
6.51609935
 21
4.9900114704
 31
0.0
  0
LINE
  5
621
330
1F
100
AcDbEntity
  8
0
  6
Continuous
 62
     7
370
    30
100
AcDbLine
 10
6.51609935
 20
4.9900114704
 30
0.0
 11
6.51609935
 21
5.035376193
 31
0.0
  0
LINE
  5
622
330
1F
100
AcDbEntity
  8
0
  6
Continuous
 62
     7
370
    30
100
AcDbLine
 10
6.51609935
 20
5.0481219657
 30
0.0
 11
6.51609935
 21
5.068011496
 31
0.0
  0
LINE
  5
623
330
1F
100
AcDbEntity
  8
0
  6
Continuous
 62
     7
370
    30
100
AcDbLine
 10
7.0160993439
 20
5.068011496
 30
0.0
 11
7.0160993439
 21
5.0389612716
 31
0.0
  0
LINE
  5
624
330
1F
100
AcDbEntity
  8
0
  6
Continuous
 62
     7
370
    30
100
AcDbLine
 10
7.0160993439
 20
5.0248311281
 30
0.0
 11
7.0160993439
 21
4.9900114704
 31
0.0
  0
LINE
  5
625
330
1F
100
AcDbEntity
  8
0
  6
Continuous
 62
     7
370
    30
100
AcDbLine
 10
8.9280992364
 20
5.6020114738
 30
0.0
 11
8.9280992364
 21
5.0353537532
 31
0.0
  0
LINE
  5
626
330
1F
100
AcDbEntity
  8
0
  6
Continuous
 62
     7
370
    30
100
AcDbLine
 10
8.9280992364
 20
4.9873125415
 30
0.0
 11
8.9280992364
 21
4.9770115272
 31
0.0
  0
LINE
  5
627
330
1F
100
AcDbEntity
  8
0
  6
Continuous
 62
     7
370
    30
100
AcDbLine
 10
8.9280992364
 20
5.6020114738
 30
0.0
 11
8.9910994686
 21
5.6020114738
 31
0.0
  0
LINE
  5
628
330
1F
100
AcDbEntity
  8
0
  6
Continuous
 62
     7
370
    30
100
AcDbLine
 10
7.6040993846
 20
5.6020114738
 30
0.0
 11
7.6040993846
 21
5.0353537532
 31
0.0
  0
LINE
  5
629
330
1F
100
AcDbEntity
  8
0
  6
Continuous
 62
     7
370
    30
100
AcDbLine
 10
7.6040993846
 20
4.9873125415
 30
0.0
 11
7.6040993846
 21
4.9770115272
 31
0.0
  0
LINE
  5
62A
330
1F
100
AcDbEntity
  8
0
  6
Continuous
 62
     7
370
    30
100
AcDbLine
 10
7.6040993846
 20
5.6020114738
 30
0.0
 11
7.5410992991
 21
5.6020114738
 31
0.0
  0
LINE
  5
62B
330
1F
100
AcDbEntity
  8
0
  6
Continuous
 62
     7
370
    30
100
AcDbLine
 10
7.619099398
 20
5.6020114738
 30
0.0
 11
7.6040993846
 21
5.6020114738
 31
0.0
  0
LINE
  5
62C
330
1F
100
AcDbEntity
  8
0
  6
Continuous
 62
     7
370
    30
100
AcDbLine
 10
7.619099398
 20
5.1020115165
 30
0.0
 11
7.619099398
 21
5.6020114738
 31
0.0
  0
LINE
  5
62D
330
1F
100
AcDbEntity
  8
0
  6
Continuous
 62
     7
370
    30
100
AcDbLine
 10
7.6040993846
 20
5.1020115165
 30
0.0
 11
7.619099398
 21
5.1020115165
 31
0.0
  0
LINE
  5
62E
330
1F
100
AcDbEntity
  8
0
  6
Continuous
 62
     7
370
    30
100
AcDbLine
 10
8.913099223
 20
5.1020115165
 30
0.0
 11
8.9280992364
 21
5.1020115165
 31
0.0
  0
LINE
  5
62F
330
1F
100
AcDbEntity
  8
0
  6
Continuous
 62
     7
370
    30
100
AcDbLine
 10
8.913099223
 20
5.6020114738
 30
0.0
 11
8.913099223
 21
5.1020115165
 31
0.0
  0
LINE
  5
630
330
1F
100
AcDbEntity
  8
0
  6
Continuous
 62
     7
370
    30
100
AcDbLine
 10
8.9280992364
 20
5.6020114738
 30
0.0
 11
8.913099223
 21
5.6020114738
 31
0.0
  0
LINE
  5
631
330
1F
100
AcDbEntity
  8
0
  6
Continuous
 62
     7
370
    30
100
AcDbLine
 10
8.8600994886
 20
5.618011449
 30
0.0
 11
8.8600994886
 21
5.6960115479
 31
0.0
  0
LINE
  5
632
330
1F
100
AcDbEntity
  8
0
  6
Continuous
 62
     7
370
    30
100
AcDbLine
 10
7.6720994258
 20
5.618011449
 30
0.0
 11
8.8600994886
 21
5.618011449
 31
0.0
  0
LINE
  5
633
330
1F
100
AcDbEntity
  8
0
  6
Continuous
 62
     7
370
    30
100
AcDbLine
 10
7.6720994258
 20
5.6960115479
 30
0.0
 11
7.6720994258
 21
5.618011449
 31
0.0
  0
LINE
  5
634
330
1F
100
AcDbEntity
  8
0
  6
Continuous
 62
     7
370
    30
100
AcDbLine
 10
7.6720994258
 20
5.6960115479
 30
0.0
 11
8.8600994886
 21
5.6960115479
 31
0.0
  0
LINE
  5
635
330
1F
100
AcDbEntity
  8
0
  6
Continuous
 62
     7
370
    30
100
AcDbLine
 10
8.913099223
 20
5.1020115165
 30
0.0
 11
8.369555902
 21
5.1020115165
 31
0.0
  0
LINE
  5
636
330
1F
100
AcDbEntity
  8
0
  6
Continuous
 62
     7
370
    30
100
AcDbLine
 10
8.3525917513
 20
5.1020115165
 30
0.0
 11
8.1580399321
 21
5.1020115165
 31
0.0
  0
LINE
  5
637
330
1F
100
AcDbEntity
  8
0
  6
Continuous
 62
     7
370
    30
100
AcDbLine
 10
8.1410757815
 20
5.1020115165
 30
0.0
 11
7.619099398
 21
5.1020115165
 31
0.0
  0
LINE
  5
638
330
1F
100
AcDbEntity
  8
0
  6
Continuous
 62
     7
370
    30
100
AcDbLine
 10
7.619099398
 20
5.6020114738
 30
0.0
 11
7.6720994258
 21
5.6020114738
 31
0.0
  0
LINE
  5
639
330
1F
100
AcDbEntity
  8
0
  6
Continuous
 62
     7
370
    30
100
AcDbLine
 10
7.6720994258
 20
5.618011449
 30
0.0
 11
7.6720994258
 21
5.6020114738
 31
0.0
  0
LINE
  5
63A
330
1F
100
AcDbEntity
  8
0
  6
Continuous
 62
     7
370
    30
100
AcDbLine
 10
8.8600994886
 20
5.6020114738
 30
0.0
 11
8.8600994886
 21
5.618011449
 31
0.0
  0
LINE
  5
63B
330
1F
100
AcDbEntity
  8
0
  6
Continuous
 62
     7
370
    30
100
AcDbLine
 10
8.8600994886
 20
5.6020114738
 30
0.0
 11
8.913099223
 21
5.6020114738
 31
0.0
  0
LINE
  5
63C
330
1F
100
AcDbEntity
  8
0
  6
Continuous
 62
     7
370
    30
100
AcDbLine
 10
8.5160994358
 20
5.068011496
 30
0.0
 11
8.5160994358
 21
5.1020115165
 31
0.0
  0
LINE
  5
63D
330
1F
100
AcDbEntity
  8
0
  6
Continuous
 62
     7
370
    30
100
AcDbLine
 10
8.0160993319
 20
5.1020115165
 30
0.0
 11
8.0160993319
 21
5.068011496
 31
0.0
  0
LINE
  5
63E
330
1F
100
AcDbEntity
  8
0
  6
Continuous
 62
     7
370
    30
100
AcDbLine
 10
8.5160994358
 20
4.9900114704
 30
0.0
 11
8.4433159166
 21
4.9900114704
 31
0.0
  0
LINE
  5
63F
330
1F
100
AcDbEntity
  8
0
  6
Continuous
 62
     7
370
    30
100
AcDbLine
 10
8.3461965719
 20
4.9900114704
 30
0.0
 11
8.3370430643
 21
4.9900114704
 31
0.0
  0
LINE
  5
640
330
1F
100
AcDbEntity
  8
0
  6
Continuous
 62
     7
370
    30
100
AcDbLine
 10
8.1951555567
 20
4.9900114704
 30
0.0
 11
8.1817459783
 21
4.9900114704
 31
0.0
  0
LINE
  5
641
330
1F
100
AcDbEntity
  8
0
  6
Continuous
 62
     7
370
    30
100
AcDbLine
 10
8.0673159135
 20
4.9900114704
 30
0.0
 11
8.0160993319
 21
4.9900114704
 31
0.0
  0
LINE
  5
642
330
1F
100
AcDbEntity
  8
0
  6
Continuous
 62
     7
370
    30
100
AcDbLine
 10
8.0160993319
 20
4.9900114704
 30
0.0
 11
8.0160993319
 21
5.035376193
 31
0.0
  0
LINE
  5
643
330
1F
100
AcDbEntity
  8
0
  6
Continuous
 62
     7
370
    30
100
AcDbLine
 10
8.0160993319
 20
5.0481219657
 30
0.0
 11
8.0160993319
 21
5.068011496
 31
0.0
  0
LINE
  5
644
330
1F
100
AcDbEntity
  8
0
  6
Continuous
 62
     7
370
    30
100
AcDbLine
 10
8.5160994358
 20
5.068011496
 30
0.0
 11
8.5160994358
 21
5.0389612716
 31
0.0
  0
LINE
  5
645
330
1F
100
AcDbEntity
  8
0
  6
Continuous
 62
     7
370
    30
100
AcDbLine
 10
8.5160994358
 20
5.0248311281
 30
0.0
 11
8.5160994358
 21
4.9900114704
 31
0.0
  0
LINE
  5
646
330
1F
100
AcDbEntity
  8
0
  6
Continuous
 62
     7
370
    30
100
AcDbLine
 10
4.4280993274
 20
5.6020114738
 30
0.0
 11
4.4280993274
 21
5.0353537532
 31
0.0
  0
LINE
  5
647
330
1F
100
AcDbEntity
  8
0
  6
Continuous
 62
     7
370
    30
100
AcDbLine
 10
4.4280993274
 20
4.9873125415
 30
0.0
 11
4.4280993274
 21
4.9770115272
 31
0.0
  0
LINE
  5
648
330
1F
100
AcDbEntity
  8
0
  6
Continuous
 62
     7
370
    30
100
AcDbLine
 10
4.4280993274
 20
5.6020114738
 30
0.0
 11
4.491099413
 21
5.6020114738
 31
0.0
  0
LINE
  5
649
330
1F
100
AcDbEntity
  8
0
  6
Continuous
 62
     7
370
    30
100
AcDbLine
 10
3.1040994757
 20
5.6020114738
 30
0.0
 11
3.1040994757
 21
5.0353537532
 31
0.0
  0
LINE
  5
64A
330
1F
100
AcDbEntity
  8
0
  6
Continuous
 62
     7
370
    30
100
AcDbLine
 10
3.1040994757
 20
4.9873125415
 30
0.0
 11
3.1040994757
 21
4.9770115272
 31
0.0
  0
LINE
  5
64B
330
1F
100
AcDbEntity
  8
0
  6
Continuous
 62
     7
370
    30
100
AcDbLine
 10
3.1040994757
 20
5.6020114738
 30
0.0
 11
3.0410992435
 21
5.6020114738
 31
0.0
  0
LINE
  5
64C
330
1F
100
AcDbEntity
  8
0
  6
Continuous
 62
     7
370
    30
100
AcDbLine
 10
4.413099314
 20
5.6020114738
 30
0.0
 11
4.413099314
 21
5.1020115165
 31
0.0
  0
LINE
  5
64D
330
1F
100
AcDbEntity
  8
0
  6
Continuous
 62
     7
370
    30
100
AcDbLine
 10
4.4280993274
 20
5.6020114738
 30
0.0
 11
4.413099314
 21
5.6020114738
 31
0.0
  0
LINE
  5
64E
330
1F
100
AcDbEntity
  8
0
  6
Continuous
 62
     7
370
    30
100
AcDbLine
 10
4.413099314
 20
5.1020115165
 30
0.0
 11
4.4280993274
 21
5.1020115165
 31
0.0
  0
LINE
  5
64F
330
1F
100
AcDbEntity
  8
0
  6
Continuous
 62
     7
370
    30
100
AcDbLine
 10
3.1190994891
 20
5.1020115165
 30
0.0
 11
3.1190994891
 21
5.6020114738
 31
0.0
  0
LINE
  5
650
330
1F
100
AcDbEntity
  8
0
  6
Continuous
 62
     7
370
    30
100
AcDbLine
 10
3.1040994757
 20
5.1020115165
 30
0.0
 11
3.1190994891
 21
5.1020115165
 31
0.0
  0
LINE
  5
651
330
1F
100
AcDbEntity
  8
0
  6
Continuous
 62
     7
370
    30
100
AcDbLine
 10
3.1190994891
 20
5.6020114738
 30
0.0
 11
3.1040994757
 21
5.6020114738
 31
0.0
  0
LINE
  5
652
330
1F
100
AcDbEntity
  8
0
  6
Continuous
 62
     7
370
    30
100
AcDbLine
 10
3.1720992235
 20
5.618011449
 30
0.0
 11
4.3600992863
 21
5.618011449
 31
0.0
  0
LINE
  5
653
330
1F
100
AcDbEntity
  8
0
  6
Continuous
 62
     7
370
    30
100
AcDbLine
 10
4.3600992863
 20
5.6020114738
 30
0.0
 11
4.3600992863
 21
5.618011449
 31
0.0
  0
LINE
  5
654
330
1F
100
AcDbEntity
  8
0
  6
Continuous
 62
     7
370
    30
100
AcDbLine
 10
3.1190994891
 20
5.6020114738
 30
0.0
 11
3.1720992235
 21
5.6020114738
 31
0.0
  0
LINE
  5
655
330
1F
100
AcDbEntity
  8
0
  6
Continuous
 62
     7
370
    30
100
AcDbLine
 10
4.3600992863
 20
5.6020114738
 30
0.0
 11
4.413099314
 21
5.6020114738
 31
0.0
  0
LINE
  5
656
330
1F
100
AcDbEntity
  8
0
  6
Continuous
 62
     7
370
    30
100
AcDbLine
 10
3.1720992235
 20
5.618011449
 30
0.0
 11
3.1720992235
 21
5.6020114738
 31
0.0
  0
LINE
  5
657
330
1F
100
AcDbEntity
  8
0
  6
Continuous
 62
     7
370
    30
100
AcDbLine
 10
4.413099314
 20
5.1020115165
 30
0.0
 11
3.8695558464
 21
5.1020115165
 31
0.0
  0
LINE
  5
658
330
1F
100
AcDbEntity
  8
0
  6
Continuous
 62
     7
370
    30
100
AcDbLine
 10
3.8525916957
 20
5.1020115165
 30
0.0
 11
3.6580398765
 21
5.1020115165
 31
0.0
  0
LINE
  5
659
330
1F
100
AcDbEntity
  8
0
  6
Continuous
 62
     7
370
    30
100
AcDbLine
 10
3.6410757258
 20
5.1020115165
 30
0.0
 11
3.1190994891
 21
5.1020115165
 31
0.0
  0
LINE
  5
65A
330
1F
100
AcDbEntity
  8
0
  6
Continuous
 62
     7
370
    30
100
AcDbLine
 10
3.1720992235
 20
5.6960115479
 30
0.0
 11
4.3600992863
 21
5.6960115479
 31
0.0
  0
LINE
  5
65B
330
1F
100
AcDbEntity
  8
0
  6
Continuous
 62
     7
370
    30
100
AcDbLine
 10
4.3600992863
 20
5.618011449
 30
0.0
 11
4.3600992863
 21
5.6960115479
 31
0.0
  0
LINE
  5
65C
330
1F
100
AcDbEntity
  8
0
  6
Continuous
 62
     7
370
    30
100
AcDbLine
 10
3.1720992235
 20
5.6960115479
 30
0.0
 11
3.1720992235
 21
5.618011449
 31
0.0
  0
LINE
  5
65D
330
1F
100
AcDbEntity
  8
0
  6
Continuous
 62
     7
370
    30
100
AcDbLine
 10
4.0160993802
 20
4.9900114704
 30
0.0
 11
3.943315861
 21
4.9900114704
 31
0.0
  0
LINE
  5
65E
330
1F
100
AcDbEntity
  8
0
  6
Continuous
 62
     7
370
    30
100
AcDbLine
 10
3.8461965163
 20
4.9900114704
 30
0.0
 11
3.8370431553
 21
4.9900114704
 31
0.0
  0
LINE
  5
65F
330
1F
100
AcDbEntity
  8
0
  6
Continuous
 62
     7
370
    30
100
AcDbLine
 10
3.6951556478
 20
4.9900114704
 30
0.0
 11
3.6817460693
 21
4.9900114704
 31
0.0
  0
LINE
  5
660
330
1F
100
AcDbEntity
  8
0
  6
Continuous
 62
     7
370
    30
100
AcDbLine
 10
3.5673158579
 20
4.9900114704
 30
0.0
 11
3.5160992762
 21
4.9900114704
 31
0.0
  0
LINE
  5
661
330
1F
100
AcDbEntity
  8
0
  6
Continuous
 62
     7
370
    30
100
AcDbLine
 10
3.5160992762
 20
4.9900114704
 30
0.0
 11
3.5160992762
 21
5.035376193
 31
0.0
  0
LINE
  5
662
330
1F
100
AcDbEntity
  8
0
  6
Continuous
 62
     7
370
    30
100
AcDbLine
 10
3.5160992762
 20
5.0481219657
 30
0.0
 11
3.5160992762
 21
5.068011496
 31
0.0
  0
LINE
  5
663
330
1F
100
AcDbEntity
  8
0
  6
Continuous
 62
     7
370
    30
100
AcDbLine
 10
4.0160993802
 20
5.068011496
 30
0.0
 11
4.0160993802
 21
5.0389612716
 31
0.0
  0
LINE
  5
664
330
1F
100
AcDbEntity
  8
0
  6
Continuous
 62
     7
370
    30
100
AcDbLine
 10
4.0160993802
 20
5.0248311281
 30
0.0
 11
4.0160993802
 21
4.9900114704
 31
0.0
  0
LINE
  5
665
330
1F
100
AcDbEntity
  8
0
  6
Continuous
 62
     7
370
    30
100
AcDbLine
 10
4.0160993802
 20
5.068011496
 30
0.0
 11
4.0160993802
 21
5.1020115165
 31
0.0
  0
LINE
  5
666
330
1F
100
AcDbEntity
  8
0
  6
Continuous
 62
     7
370
    30
100
AcDbLine
 10
3.5160992762
 20
5.1020115165
 30
0.0
 11
3.5160992762
 21
5.068011496
 31
0.0
  0
LINE
  5
667
330
1F
100
AcDbEntity
  8
0
  6
Continuous
 62
     8
370
    30
100
AcDbLine
 10
3.9439322939
 20
6.520592089
 30
0.0
 11
3.5882665092
 21
6.520592089
 31
0.0
  0
LINE
  5
668
330
1F
100
AcDbEntity
  8
0
  6
Continuous
 62
     8
370
    30
100
AcDbLine
 10
8.2660993105
 20
6.520592089
 30
0.0
 11
8.0882664182
 21
6.520592089
 31
0.0
  0
LINE
  5
669
330
1F
100
AcDbEntity
  8
0
  6
Continuous
 62
     8
370
    30
100
AcDbLine
 10
8.4439322028
 20
6.520592089
 30
0.0
 11
8.2660993105
 21
6.520592089
 31
0.0
  0
LINE
  5
66A
330
1F
100
AcDbEntity
  8
0
  6
Continuous
 62
     8
370
    30
100
AcDbLine
 10
8.0795993983
 20
4.56674516
 30
0.0
 11
8.4525993694
 21
4.56674516
 31
0.0
  0
LINE
  5
66B
330
1F
100
AcDbEntity
  8
0
  6
Continuous
 62
     8
370
    30
100
AcDbLine
 10
8.0901658762
 20
4.5491096504
 30
0.0
 11
8.4420327448
 21
4.5491096504
 31
0.0
  0
LINE
  5
66C
330
1F
100
AcDbEntity
  8
0
  6
Continuous
 62
     8
370
    30
100
AcDbLine
 10
3.5795993427
 20
4.56674516
 30
0.0
 11
3.9525993138
 21
4.56674516
 31
0.0
  0
LINE
  5
66D
330
1F
100
AcDbEntity
  8
0
  6
Continuous
 62
     8
370
    30
100
AcDbLine
 10
3.5901659673
 20
4.5491096504
 30
0.0
 11
3.9420328358
 21
4.5491096504
 31
0.0
  0
LINE
  5
66E
330
1F
100
AcDbEntity
  8
0
  6
Continuous
 62
     8
370
    30
100
AcDbLine
 10
5.0160993681
 20
5.068011496
 30
0.0
 11
5.0716566463
 21
5.068011496
 31
0.0
  0
LINE
  5
66F
330
1F
100
AcDbEntity
  8
0
  6
Continuous
 62
     8
370
    30
100
AcDbLine
 10
5.1072594217
 20
5.068011496
 30
0.0
 11
5.403372261
 21
5.068011496
 31
0.0
  0
LINE
  5
670
330
1F
100
AcDbEntity
  8
0
  6
Continuous
 62
     8
370
    30
100
AcDbLine
 10
5.438975073
 20
5.068011496
 30
0.0
 11
5.5160993621
 21
5.068011496
 31
0.0
  0
LINE
  5
671
330
1F
100
AcDbEntity
  8
0
  6
Continuous
 62
     8
370
    30
100
AcDbLine
 10
6.51609935
 20
5.068011496
 30
0.0
 11
6.5716566282
 21
5.068011496
 31
0.0
  0
LINE
  5
672
330
1F
100
AcDbEntity
  8
0
  6
Continuous
 62
     8
370
    30
100
AcDbLine
 10
6.6072594402
 20
5.068011496
 30
0.0
 11
6.9033722795
 21
5.068011496
 31
0.0
  0
LINE
  5
673
330
1F
100
AcDbEntity
  8
0
  6
Continuous
 62
     8
370
    30
100
AcDbLine
 10
6.9389750549
 20
5.068011496
 30
0.0
 11
7.0160993439
 21
5.068011496
 31
0.0
  0
LINE
  5
674
330
1F
100
AcDbEntity
  8
0
  6
Continuous
 62
     8
370
    30
100
AcDbLine
 10
8.0160993319
 20
5.068011496
 30
0.0
 11
8.0716566101
 21
5.068011496
 31
0.0
  0
LINE
  5
675
330
1F
100
AcDbEntity
  8
0
  6
Continuous
 62
     8
370
    30
100
AcDbLine
 10
8.1072593854
 20
5.068011496
 30
0.0
 11
8.1859180101
 21
5.068011496
 31
0.0
  0
LINE
  5
676
330
1F
100
AcDbEntity
  8
0
  6
Continuous
 62
     8
370
    30
100
AcDbLine
 10
8.3462807576
 20
5.068011496
 30
0.0
 11
8.403372298
 21
5.068011496
 31
0.0
  0
LINE
  5
677
330
1F
100
AcDbEntity
  8
0
  6
Continuous
 62
     8
370
    30
100
AcDbLine
 10
8.4389750734
 20
5.068011496
 30
0.0
 11
8.5160994358
 21
5.068011496
 31
0.0
  0
LINE
  5
678
330
1F
100
AcDbEntity
  8
0
  6
Continuous
 62
     8
370
    30
100
AcDbLine
 10
3.5160992762
 20
5.068011496
 30
0.0
 11
3.5716565544
 21
5.068011496
 31
0.0
  0
LINE
  5
679
330
1F
100
AcDbEntity
  8
0
  6
Continuous
 62
     8
370
    30
100
AcDbLine
 10
3.6072594765
 20
5.068011496
 30
0.0
 11
3.6859179545
 21
5.068011496
 31
0.0
  0
LINE
  5
67A
330
1F
100
AcDbEntity
  8
0
  6
Continuous
 62
     8
370
    30
100
AcDbLine
 10
3.846280702
 20
5.068011496
 30
0.0
 11
3.9033722424
 21
5.068011496
 31
0.0
  0
LINE
  5
67B
330
1F
100
AcDbEntity
  8
0
  6
Continuous
 62
     8
370
    30
100
AcDbLine
 10
3.9389750178
 20
5.068011496
 30
0.0
 11
4.0160993802
 21
5.068011496
 31
0.0
  0
INSERT
  5
683
330
1F
100
AcDbEntity
  8
FORMAT
100
AcDbBlockReference
  2
SW_NOTE_0
 10
5.4393626636
 20
3.1491935009
 30
0.0
  0
ENDSEC
  0
SECTION
  2
OBJECTS
  0
DICTIONARY
  5
C
330
0
100
AcDbDictionary
281
     1
  3
ACAD_GROUP
350
D
  3
ACAD_LAYOUT
350
1A
  3
ACAD_MLINESTYLE
350
17
  3
ACAD_PLOTSETTINGS
350
19
  3
ACAD_PLOTSTYLENAME
350
E
  0
DICTIONARY
  5
D
102
{ACAD_REACTORS
330
C
102
}
330
C
100
AcDbDictionary
281
     1
  0
DICTIONARY
  5
1A
102
{ACAD_REACTORS
330
C
102
}
330
C
100
AcDbDictionary
281
     1
  3
Layout1
350
1E
  3
Layout2
350
26
  3
Model
350
22
  0
DICTIONARY
  5
17
102
{ACAD_REACTORS
330
C
102
}
330
C
100
AcDbDictionary
281
     1
  3
Standard
350
18
  0
DICTIONARY
  5
19
102
{ACAD_REACTORS
330
C
102
}
330
C
100
AcDbDictionary
281
     1
  0
ACDBDICTIONARYWDFLT
  5
E
102
{ACAD_REACTORS
330
C
102
}
330
C
100
AcDbDictionary
281
     1
  3
Normal
350
F
100
AcDbDictionaryWithDefault
340
F
  0
LAYOUT
  5
1E
102
{ACAD_REACTORS
330
1A
102
}
330
1A
100
AcDbPlotSettings
  1

  2
none_device
  4

  6

 40
0.0
 41
0.0
 42
0.0
 43
0.0
 44
0.0
 45
0.0
 46
0.0
 47
0.0
 48
0.0
 49
0.0
140
0.0
141
0.0
142
1.0
143
1.0
 70
   688
 72
     0
 73
     0
 74
     5
  7

 75
    16
147
1.0
148
0.0
149
0.0
100
AcDbLayout
  1
Layout1
 70
     1
 71
     1
 10
0.0
 20
0.0
 11
12.0
 21
9.0
 12
0.0
 22
0.0
 32
0.0
 14
1.0000000000E+20
 24
1.0000000000E+20
 34
1.0000000000E+20
 15
-1.0000000000E+20
 25
-1.0000000000E+20
 35
-1.0000000000E+20
146
0.0
 13
0.0
 23
0.0
 33
0.0
 16
1.0
 26
0.0
 36
0.0
 17
0.0
 27
1.0
 37
0.0
 76
     0
330
1B
  0
LAYOUT
  5
26
102
{ACAD_REACTORS
330
1A
102
}
330
1A
100
AcDbPlotSettings
  1

  2
none_device
  4

  6

 40
0.0
 41
0.0
 42
0.0
 43
0.0
 44
0.0
 45
0.0
 46
0.0
 47
0.0
 48
0.0
 49
0.0
140
0.0
141
0.0
142
1.0
143
1.0
 70
   688
 72
     0
 73
     0
 74
     5
  7

 75
    16
147
1.0
148
0.0
149
0.0
100
AcDbLayout
  1
Layout2
 70
     1
 71
     2
 10
0.0
 20
0.0
 11
0.0
 21
0.0
 12
0.0
 22
0.0
 32
0.0
 14
0.0
 24
0.0
 34
0.0
 15
0.0
 25
0.0
 35
0.0
146
0.0
 13
0.0
 23
0.0
 33
0.0
 16
1.0
 26
0.0
 36
0.0
 17
0.0
 27
1.0
 37
0.0
 76
     0
330
23
  0
LAYOUT
  5
22
102
{ACAD_REACTORS
330
1A
102
}
330
1A
100
AcDbPlotSettings
  1

  2
none_device
  4

  6

 40
0.0
 41
0.0
 42
0.0
 43
0.0
 44
0.0
 45
0.0
 46
0.0
 47
0.0
 48
0.0
 49
0.0
140
0.0
141
0.0
142
1.0
143
1.0
 70
  1712
 72
     0
 73
     0
 74
     0
  7

 75
     0
147
1.0
148
0.0
149
0.0
100
AcDbLayout
  1
Model
 70
     1
 71
     0
 10
0.0
 20
0.0
 11
11.0
 21
8.5
 12
0.0
 22
0.0
 32
0.0
 14
0.0
 24
0.0
 34
0.0
 15
11.0
 25
8.5
 35
0.0
146
0.0
 13
0.0
 23
0.0
 33
0.0
 16
1.0
 26
0.0
 36
0.0
 17
0.0
 27
1.0
 37
0.0
 76
     0
330
1F
331
29
  0
MLINESTYLE
  5
18
102
{ACAD_REACTORS
330
17
102
}
330
17
100
AcDbMlineStyle
  2
Standard
 70
     0
  3

 62
   256
 51
90.0
 52
90.0
 71
     2
 49
0.5
 62
   256
  6
BYLAYER
 49
-0.5
 62
   256
  6
BYLAYER
  0
ACDBPLACEHOLDER
  5
F
102
{ACAD_REACTORS
330
E
102
}
330
E
  0
ENDSEC
  0
EOF
